  0
SECTION
  2
HEADER
  9
$ACADVER
  1
AC1014
  9
$ACADMAINTVER
 70
           0
  9
$DWGCODEPAGE
  3
ANSI_1250
  9
$INSBASE
 10
0.0
 20
0.0
 30
0.0
  9
$EXTMIN
 10
-7.428703162244
 20
3.360912703474
 30
0.0
  9
$EXTMAX
 10
12.821067811865
 20
15.881727983645
 30
0.0
  9
$LIMMIN
 10
0.0
 20
0.0
  9
$LIMMAX
 10
420.0
 20
297.0
  9
$ORTHOMODE
 70
           0
  9
$REGENMODE
 70
           1
  9
$FILLMODE
 70
           1
  9
$QTEXTMODE
 70
           0
  9
$MIRRTEXT
 70
           1
  9
$DRAGMODE
 70
           0
  9
$LTSCALE
 40
1.0
  9
$OSMODE
 70
           0
  9
$ATTMODE
 70
           1
  9
$TEXTSIZE
 40
2.5
  9
$TRACEWID
 40
1.0
  9
$TEXTSTYLE
  7
STANDARD
  9
$CLAYER
  8
0
  9
$CELTYPE
  6
BYLAYER
  9
$CECOLOR
 62
         256
  9
$CELTSCALE
 40
1.0
  9
$DELOBJ
 70
           1
  9
$DISPSILH
 70
           0
  9
$DIMSCALE
 40
1.0
  9
$DIMASZ
 40
2.5
  9
$DIMEXO
 40
0.625
  9
$DIMDLI
 40
3.75
  9
$DIMRND
 40
0.0
  9
$DIMDLE
 40
0.0
  9
$DIMEXE
 40
1.25
  9
$DIMTP
 40
0.0
  9
$DIMTM
 40
0.0
  9
$DIMTXT
 40
2.5
  9
$DIMCEN
 40
2.5
  9
$DIMTSZ
 40
0.0
  9
$DIMTOL
 70
           0
  9
$DIMLIM
 70
           0
  9
$DIMTIH
 70
           0
  9
$DIMTOH
 70
           0
  9
$DIMSE1
 70
           0
  9
$DIMSE2
 70
           0
  9
$DIMTAD
 70
           1
  9
$DIMZIN
 70
           8
  9
$DIMBLK
  1

  9
$DIMASO
 70
           1
  9
$DIMSHO
 70
           1
  9
$DIMPOST
  1

  9
$DIMAPOST
  1

  9
$DIMALT
 70
           0
  9
$DIMALTD
 70
           3
  9
$DIMALTF
 40
0.03937007874
  9
$DIMLFAC
 40
1.0
  9
$DIMTOFL
 70
           1
  9
$DIMTVP
 40
0.0
  9
$DIMTIX
 70
           0
  9
$DIMSOXD
 70
           0
  9
$DIMSAH
 70
           0
  9
$DIMBLK1
  1

  9
$DIMBLK2
  1

  9
$DIMSTYLE
  2
ISO-25
  9
$DIMCLRD
 70
           0
  9
$DIMCLRE
 70
           0
  9
$DIMCLRT
 70
           0
  9
$DIMTFAC
 40
1.0
  9
$DIMGAP
 40
0.625
  9
$DIMJUST
 70
           0
  9
$DIMSD1
 70
           0
  9
$DIMSD2
 70
           0
  9
$DIMTOLJ
 70
           0
  9
$DIMTZIN
 70
           8
  9
$DIMALTZ
 70
           0
  9
$DIMALTTZ
 70
           0
  9
$DIMFIT
 70
           3
  9
$DIMUPT
 70
           0
  9
$DIMUNIT
 70
           2
  9
$DIMDEC
 70
           2
  9
$DIMTDEC
 70
           2
  9
$DIMALTU
 70
           2
  9
$DIMALTTD
 70
           3
  9
$DIMTXSTY
  7
STANDARD
  9
$DIMAUNIT
 70
           0
  9
$LUNITS
 70
           2
  9
$LUPREC
 70
           4
  9
$SKETCHINC
 40
1.0
  9
$FILLETRAD
 40
10.0
  9
$AUNITS
 70
           0
  9
$AUPREC
 70
           0
  9
$MENU
  1
.
  9
$ELEVATION
 40
0.0
  9
$PELEVATION
 40
0.0
  9
$THICKNESS
 40
0.0
  9
$LIMCHECK
 70
           0
  9
$BLIPMODE
 70
           0
  9
$CHAMFERA
 40
0.0
  9
$CHAMFERB
 40
0.0
  9
$CHAMFERC
 40
20.0
  9
$CHAMFERD
 40
0.0
  9
$SKPOLY
 70
           0
  9
$TDCREATE
 40
2452176.023501609
  9
$TDUPDATE
 40
2452185.820486100
  9
$TDINDWG
 40
0.0285912847
  9
$TDUSRTIMER
 40
0.0009722106
  9
$USRTIMER
 70
           1
  9
$ANGBASE
 50
0.0
  9
$ANGDIR
 70
           0
  9
$PDMODE
 70
           0
  9
$PDSIZE
 40
0.0
  9
$PLINEWID
 40
0.0
  9
$COORDS
 70
           0
  9
$SPLFRAME
 70
           0
  9
$SPLINETYPE
 70
           6
  9
$SPLINESEGS
 70
           8
  9
$ATTDIA
 70
           0
  9
$ATTREQ
 70
           0
  9
$HANDLING
 70
           1
  9
$HANDSEED
  5
311
  9
$SURFTAB1
 70
           6
  9
$SURFTAB2
 70
           6
  9
$SURFTYPE
 70
           6
  9
$SURFU
 70
           6
  9
$SURFV
 70
           6
  9
$UCSNAME
  2

  9
$UCSORG
 10
0.0
 20
0.0
 30
0.0
  9
$UCSXDIR
 10
1.0
 20
0.0
 30
0.0
  9
$UCSYDIR
 10
0.0
 20
1.0
 30
0.0
  9
$PUCSNAME
  2

  9
$PUCSORG
 10
0.0
 20
0.0
 30
0.0
  9
$PUCSXDIR
 10
1.0
 20
0.0
 30
0.0
  9
$PUCSYDIR
 10
0.0
 20
1.0
 30
0.0
  9
$USERI1
 70
           0
  9
$USERI2
 70
           0
  9
$USERI3
 70
           0
  9
$USERI4
 70
           0
  9
$USERI5
 70
           0
  9
$USERR1
 40
0.0
  9
$USERR2
 40
0.0
  9
$USERR3
 40
0.0
  9
$USERR4
 40
0.0
  9
$USERR5
 40
0.0
  9
$WORLDVIEW
 70
           1
  9
$SHADEDGE
 70
           3
  9
$SHADEDIF
 70
          70
  9
$TILEMODE
 70
           1
  9
$MAXACTVP
 70
          48
  9
$PINSBASE
 10
0.0
 20
0.0
 30
0.0
  9
$PLIMCHECK
 70
           0
  9
$PEXTMIN
 10
1.000000000000E+20
 20
1.000000000000E+20
 30
1.000000000000E+20
  9
$PEXTMAX
 10
-1.000000000000E+20
 20
-1.000000000000E+20
 30
-1.000000000000E+20
  9
$PLIMMIN
 10
0.0
 20
0.0
  9
$PLIMMAX
 10
420.0
 20
297.0
  9
$UNITMODE
 70
           0
  9
$VISRETAIN
 70
           1
  9
$PLINEGEN
 70
           0
  9
$PSLTSCALE
 70
           1
  9
$TREEDEPTH
 70
        3020
  9
$PICKSTYLE
 70
           1
  9
$CMLSTYLE
  2
STANDARD
  9
$CMLJUST
 70
           0
  9
$CMLSCALE
 40
20.0
  9
$PROXYGRAPHICS
 70
           1
  9
$MEASUREMENT
 70
           1
  0
ENDSEC
  0
SECTION
  2
CLASSES
  0
CLASS
  1
ACDBDICTIONARYWDFLT
  2
AcDbDictionaryWithDefault
  3
"AutoCAD 2000"
 90
        1
280
           0
281
           0
  0
CLASS
  1
ACDBPLACEHOLDER
  2
AcDbPlaceHolder
  3
"AutoCAD 2000"
 90
        1
280
           0
281
           0
  0
CLASS
  1
LAYOUT
  2
AcDbLayout
  3
"AutoCAD 2000"
 90
        1
280
           0
281
           0
  0
CLASS
  1
LONG_TRANSACTION
  2
AcDbLongTransaction
  3
AutoCAD 2000
 90
        0
280
           0
281
           0
  0
CLASS
  1
LWPOLYLINE
  2
AcDbPolyline
  3
"AutoCAD"
 90
        0
280
           0
281
           1
  0
CLASS
  1
HATCH
  2
AcDbHatch
  3
"ACAD_SEDONA"
 90
        0
280
           0
281
           1
  0
CLASS
  1
XRECORD
  2
AcDbXrecord
  3
"<Built In>"
 90
        0
280
           0
281
           0
  0
CLASS
  1
LONG_TRANSACTION
  2
AcDbLongTransaction
  3
AutoCAD 2000
 90
        0
280
           0
281
           0
  0
CLASS
  1
LWPOLYLINE
  2
AcDbPolyline
  3
"AutoCAD"
 90
        0
280
           0
281
           1
  0
CLASS
  1
HATCH
  2
AcDbHatch
  3
"ACAD_SEDONA"
 90
        0
280
           0
281
           1
  0
CLASS
  1
XRECORD
  2
AcDbXrecord
  3
"<Built In>"
 90
        0
280
           0
281
           0
  0
CLASS
  1
IMAGE
  2
AcDbRasterImage
  3
ISM
 90
      127
280
           0
281
           1
  0
CLASS
  1
OLE2FRAME
  2
AcDbOle2Frame
  3
""
 90
        0
280
           0
281
           1
  0
CLASS
  1
DICTIONARYVAR
  2
AcDbDictionaryVar
  3
"AutoCAD"
 90
        0
280
           0
281
           0
  0
CLASS
  1
RASTERVARIABLES
  2
AcDbRasterVariables
  3
ISM
 90
        0
280
           0
281
           0
  0
CLASS
  1
IMAGEDEF
  2
AcDbRasterImageDef
  3
ISM
 90
        0
280
           0
281
           0
  0
CLASS
  1
IMAGEDEF_REACTOR
  2
AcDbRasterImageDefReactor
  3
ISM
 90
        1
280
           0
281
           0
  0
CLASS
  1
IDBUFFER
  2
AcDbIdBuffer
  3
"Acad"
 90
        0
280
           0
281
           0
  0
CLASS
  1
SPATIAL_FILTER
  2
AcDbSpatialFilter
  3
"Acad"
 90
        0
280
           0
281
           0
  0
CLASS
  1
SORTENTSTABLE
  2
AcDbSortentsTable
  3
"AutoCAD"
 90
        0
280
           0
281
           0
  0
CLASS
  1
LAYER_INDEX
  2
AcDbLayerIndex
  3
"Acad"
 90
        0
280
           0
281
           0
  0
CLASS
  1
SPATIAL_INDEX
  2
AcDbSpatialIndex
  3
"Acad"
 90
        0
280
           0
281
           0
  0
CLASS
  1
OBJECT_PTR
  2
CAseDLPNTableRecord
  3
"ASE-LPNTableRecord"
 90
        1
280
           0
281
           0
  0
CLASS
  1
PLOTSETTINGS
  2
AcDbPlotSettings
  3
"AutoCAD 2000"
 90
        1
280
           0
281
           0
  0
CLASS
  1
VBA_PROJECT
  2
AcDbVbaProject
  3
"acadvba"
 90
        1
280
           0
281
           0
  0
CLASS
  1
WIPEOUT
  2
AcDbWipeout
  3
WipeOut|AutoCAD Express Tool|expresstools@autodesk.com
 90
      127
280
           0
281
           1
  0
CLASS
  1
WIPEOUTVARIABLES
  2
AcDbWipeoutVariables
  3
WipeOut|AutoCAD Express Tool|expresstools@autodesk.com
 90
        0
280
           0
281
           0
  0
CLASS
  1
RTEXT
  2
RText
  3
RText|AutoCAD Express Tool|expresstools@autodesk.com
 90
        0
280
           0
281
           1
  0
CLASS
  1
ARCALIGNEDTEXT
  2
AcDbArcAlignedText
  3
ATEXT|AutoCAD Express Tool|expresstools@autodesk.com
 90
        0
280
           0
281
           1
  0
ENDSEC
  0
SECTION
  2
TABLES
  0
TABLE
  2
VPORT
  5
8
100
AcDbSymbolTable
 70
           1
  0
VPORT
  5
2C6
102
{ACAD_XDICTIONARY
360
2D4
102
}
100
AcDbSymbolTableRecord
100
AcDbViewportTableRecord
  2
*ACTIVE
 70
          64
 10
0.0
 20
0.0
 11
1.0
 21
1.0
 12
2.69618232481
 22
9.621320343559
 13
0.0
 23
0.0
 14
10.0
 24
10.0
 15
10.0
 25
10.0
 16
0.0
 26
0.0
 36
1.0
 17
0.0
 27
0.0
 37
0.0
 40
12.771231585774
 41
2.254156769596
 42
50.0
 43
0.0
 44
0.0
 50
0.0
 51
0.0
 71
           0
 72
         100
 73
           1
 74
           2
 75
           0
 76
           0
 77
           0
 78
           0
  0
ENDTAB
  0
TABLE
  2
LTYPE
  5
5
100
AcDbSymbolTable
 70
           3
  0
LTYPE
  5
14
100
AcDbSymbolTableRecord
100
AcDbLinetypeTableRecord
  2
BYBLOCK
 70
          64
  3

 72
          65
 73
           0
 40
0.0
  0
LTYPE
  5
15
100
AcDbSymbolTableRecord
100
AcDbLinetypeTableRecord
  2
BYLAYER
 70
          64
  3

 72
          65
 73
           0
 40
0.0
  0
LTYPE
  5
16
102
{ACAD_XDICTIONARY
360
2D0
102
}
100
AcDbSymbolTableRecord
100
AcDbLinetypeTableRecord
  2
CONTINUOUS
 70
          64
  3
Solid line
 72
          65
 73
           0
 40
0.0
  0
ENDTAB
  0
TABLE
  2
LAYER
  5
2
100
AcDbSymbolTable
 70
           2
  0
LAYER
  5
10
100
AcDbSymbolTableRecord
100
AcDbLayerTableRecord
  2
0
 70
          64
 62
           7
  6
CONTINUOUS
  0
LAYER
  5
1C7
102
{ACAD_XDICTIONARY
360
2CA
102
}
100
AcDbSymbolTableRecord
100
AcDbLayerTableRecord
  2
POMOC
 70
          64
 62
           3
  6
CONTINUOUS
  0
ENDTAB
  0
TABLE
  2
STYLE
  5
3
100
AcDbSymbolTable
 70
           1
  0
STYLE
  5
11
102
{ACAD_XDICTIONARY
360
2D2
102
}
100
AcDbSymbolTableRecord
100
AcDbTextStyleTableRecord
  2
STANDARD
 70
          64
 40
0.0
 41
1.0
 50
0.0
 71
           0
 42
2.5
  3
txt
  4

  0
ENDTAB
  0
TABLE
  2
VIEW
  5
6
100
AcDbSymbolTable
 70
           0
  0
ENDTAB
  0
TABLE
  2
UCS
  5
7
100
AcDbSymbolTable
 70
           0
  0
ENDTAB
  0
TABLE
  2
APPID
  5
9
100
AcDbSymbolTable
 70
           1
  0
APPID
  5
12
100
AcDbSymbolTableRecord
100
AcDbRegAppTableRecord
  2
ACAD
 70
          64
  0
ENDTAB
  0
TABLE
  2
DIMSTYLE
  5
A
100
AcDbSymbolTable
 70
           1
  0
DIMSTYLE
105
27
102
{ACAD_XDICTIONARY
360
2FE
102
}
100
AcDbSymbolTableRecord
100
AcDbDimStyleTableRecord
  2
ISO-25
 70
          64
  3

  4

  5

  6

  7

 40
1.0
 41
2.5
 42
0.625
 43
3.75
 44
1.25
 45
0.0
 46
0.0
 47
0.0
 48
0.0
 71
           0
 72
           0
 73
           0
 74
           0
 75
           0
 76
           0
 77
           1
 78
           8
140
2.5
141
2.5
142
0.0
143
0.03937007874
144
1.0
145
0.0
146
1.0
147
0.625
170
           0
171
           3
172
           1
173
           0
174
           0
175
           0
176
           0
177
           0
178
           0
270
           2
271
           2
272
           2
273
           2
274
           3
275
           0
280
           0
281
           0
282
           0
283
           0
284
           8
285
           0
286
           0
287
           3
288
           0
340
11
  0
ENDTAB
  0
TABLE
  2
BLOCK_RECORD
  5
1
100
AcDbSymbolTable
 70
           0
  0
BLOCK_RECORD
  5
1F
100
AcDbSymbolTableRecord
100
AcDbBlockTableRecord
  2
*MODEL_SPACE
  0
BLOCK_RECORD
  5
1B
100
AcDbSymbolTableRecord
100
AcDbBlockTableRecord
  2
*PAPER_SPACE
  0
ENDTAB
  0
ENDSEC
  0
SECTION
  2
BLOCKS
  0
BLOCK
  5
20
100
AcDbEntity
  8
0
100
AcDbBlockBegin
  2
*MODEL_SPACE
 70
           0
 10
0.0
 20
0.0
 30
0.0
  3
*MODEL_SPACE
  1

  0
ENDBLK
  5
21
100
AcDbEntity
  8
0
100
AcDbBlockEnd
  0
BLOCK
  5
1C
100
AcDbEntity
 67
           1
  8
0
100
AcDbBlockBegin
  2
*PAPER_SPACE
 70
           0
 10
0.0
 20
0.0
 30
0.0
  3
*PAPER_SPACE
  1

  0
ENDBLK
  5
1D
100
AcDbEntity
 67
           1
  8
0
100
AcDbBlockEnd
  0
ENDSEC
  0
SECTION
  2
ENTITIES
  0
LINE
  5
40
100
AcDbEntity
  8
0
100
AcDbLine
 10
5.396446609407
 20
5.396446609407
 30
0.0
 11
12.821067811865
 21
12.821067811865
 31
0.0
  0
LINE
  5
41
100
AcDbEntity
  8
0
100
AcDbLine
 10
3.732233047034
 20
4.232233047034
 30
0.0
 11
11.863961030679
 21
12.363961030679
 31
0.0
  0
LINE
  5
42
100
AcDbEntity
  8
0
100
AcDbLine
 10
2.904792120088
 20
3.904792120088
 30
0.0
 11
11.173787767063
 21
12.173787767063
 31
0.0
  0
LINE
  5
43
100
AcDbEntity
  8
0
100
AcDbLine
 10
2.171572875254
 20
3.671572875254
 30
0.0
 11
10.569990292155
 21
12.069990292155
 31
0.0
  0
LINE
  5
44
100
AcDbEntity
  8
0
100
AcDbLine
 10
1.568019484661
 20
3.568019484661
 30
0.0
 11
10.031289420897
 21
12.031289420897
 31
0.0
  0
LINE
  5
45
100
AcDbEntity
  8
0
100
AcDbLine
 10
0.964466094067
 20
3.464466094067
 30
0.0
 11
9.539398764432
 21
12.039398764432
 31
0.0
  0
LINE
  5
46
100
AcDbEntity
  8
0
100
AcDbLine
 10
0.360912703474
 20
3.360912703474
 30
0.0
 11
9.084001494077
 21
12.084001494077
 31
0.0
  0
LINE
  5
47
100
AcDbEntity
  8
0
100
AcDbLine
 10
0.0
 20
3.5
 30
0.0
 11
6.12132034356
 21
9.62132034356
 31
0.0
  0
LINE
  5
48
100
AcDbEntity
  8
0
100
AcDbLine
 10
0.0
 20
4.0
 30
0.0
 11
6.224873734153
 21
10.224873734153
 31
0.0
  0
LINE
  5
49
100
AcDbEntity
  8
0
100
AcDbLine
 10
0.0
 20
4.5
 30
0.0
 11
5.62132034356
 21
10.12132034356
 31
0.0
  0
LINE
  5
4A
100
AcDbEntity
  8
0
100
AcDbLine
 10
0.0
 20
5.0
 30
0.0
 11
7.52491582851
 21
12.52491582851
 31
0.0
  0
LINE
  5
4B
100
AcDbEntity
  8
0
100
AcDbLine
 10
0.0
 20
5.5
 30
0.0
 11
7.18679452413
 21
12.68679452413
 31
0.0
  0
LINE
  5
4C
100
AcDbEntity
  8
0
100
AcDbLine
 10
0.0
 20
6.0
 30
0.0
 11
6.866133382593
 21
12.866133382593
 31
0.0
  0
LINE
  5
4D
100
AcDbEntity
  8
0
100
AcDbLine
 10
0.0
 20
6.5
 30
0.0
 11
6.56202283462
 21
13.06202283462
 31
0.0
  0
LINE
  5
4E
100
AcDbEntity
  8
0
100
AcDbLine
 10
0.0
 20
7.0
 30
0.0
 11
6.273808802357
 21
13.273808802357
 31
0.0
  0
LINE
  5
4F
100
AcDbEntity
  8
0
100
AcDbLine
 10
0.0
 20
7.5
 30
0.0
 11
6.001050073181
 21
13.501050073181
 31
0.0
  0
LINE
  5
50
100
AcDbEntity
  8
0
100
AcDbLine
 10
0.0
 20
8.0
 30
0.0
 11
5.743491644334
 21
13.743491644334
 31
0.0
  0
LINE
  5
51
100
AcDbEntity
  8
0
100
AcDbLine
 10
0.0
 20
8.5
 30
0.0
 11
5.501050073181
 21
14.001050073181
 31
0.0
  0
LINE
  5
52
100
AcDbEntity
  8
0
100
AcDbLine
 10
0.0
 20
9.0
 30
0.0
 11
5.273808802357
 21
14.273808802357
 31
0.0
  0
LINE
  5
53
100
AcDbEntity
  8
0
100
AcDbLine
 10
0.0
 20
9.5
 30
0.0
 11
5.06202283462
 21
14.56202283462
 31
0.0
  0
LINE
  5
54
100
AcDbEntity
  8
0
100
AcDbLine
 10
0.0
 20
10.0
 30
0.0
 11
4.866133382593
 21
14.866133382593
 31
0.0
  0
LINE
  5
55
100
AcDbEntity
  8
0
100
AcDbLine
 10
0.0
 20
10.5
 30
0.0
 11
4.68679452413
 21
15.18679452413
 31
0.0
  0
LINE
  5
56
100
AcDbEntity
  8
0
100
AcDbLine
 10
0.0
 20
11.0
 30
0.0
 11
4.52491582851
 21
15.52491582851
 31
0.0
  0
LINE
  5
57
100
AcDbEntity
  8
0
100
AcDbLine
 10
0.0
 20
11.5
 30
0.0
 11
4.381727983645
 21
15.881727983645
 31
0.0
  0
LINE
  5
58
100
AcDbEntity
  8
0
100
AcDbLine
 10
0.0
 20
11.5
 30
0.0
 11
5.75
 21
5.75
 31
0.0
  0
LINE
  5
8A
100
AcDbEntity
  8
0
100
AcDbLine
 10
0.353553390593
 20
11.853553390593
 30
0.0
 11
6.103553390593
 21
6.103553390593
 31
0.0
  0
LINE
  5
8B
100
AcDbEntity
  8
0
100
AcDbLine
 10
0.707106781187
 20
12.207106781187
 30
0.0
 11
6.457106781187
 21
6.457106781187
 31
0.0
  0
LINE
  5
8C
100
AcDbEntity
  8
0
100
AcDbLine
 10
1.06066017178
 20
12.56066017178
 30
0.0
 11
6.81066017178
 21
6.81066017178
 31
0.0
  0
LINE
  5
8D
100
AcDbEntity
  8
0
100
AcDbLine
 10
1.414213562373
 20
12.914213562373
 30
0.0
 11
7.164213562373
 21
7.164213562373
 31
0.0
  0
LINE
  5
8E
100
AcDbEntity
  8
0
100
AcDbLine
 10
1.767766952966
 20
13.267766952966
 30
0.0
 11
7.517766952966
 21
7.517766952966
 31
0.0
  0
LINE
  5
8F
100
AcDbEntity
  8
0
100
AcDbLine
 10
2.12132034356
 20
13.62132034356
 30
0.0
 11
7.87132034356
 21
7.87132034356
 31
0.0
  0
LINE
  5
90
100
AcDbEntity
  8
0
100
AcDbLine
 10
2.474873734153
 20
13.974873734153
 30
0.0
 11
5.724873734153
 21
10.724873734153
 31
0.0
  0
LINE
  5
91
100
AcDbEntity
  8
0
100
AcDbLine
 10
2.828427124746
 20
14.328427124746
 30
0.0
 11
6.328427124746
 21
10.828427124746
 31
0.0
  0
LINE
  5
92
100
AcDbEntity
  8
0
100
AcDbLine
 10
3.181980515339
 20
14.681980515339
 30
0.0
 11
6.431980515339
 21
11.431980515339
 31
0.0
  0
LINE
  5
93
100
AcDbEntity
  8
0
100
AcDbLine
 10
3.535533905933
 20
15.035533905933
 30
0.0
 11
9.285533905933
 21
9.285533905933
 31
0.0
  0
LINE
  5
94
100
AcDbEntity
  8
0
100
AcDbLine
 10
3.889087296526
 20
15.389087296526
 30
0.0
 11
9.639087296526
 21
9.639087296526
 31
0.0
  0
LINE
  5
95
100
AcDbEntity
  8
0
100
AcDbLine
 10
4.242640687119
 20
15.742640687119
 30
0.0
 11
4.578427124746
 21
15.406854249492
 31
0.0
  0
LINE
  5
96
100
AcDbEntity
  8
0
100
AcDbLine
 10
8.496775394473
 20
12.195612760952
 30
0.0
 11
10.346194077713
 21
10.346194077713
 31
0.0
  0
LINE
  5
97
100
AcDbEntity
  8
0
100
AcDbLine
 10
9.34549877937
 20
12.053996157241
 30
0.0
 11
10.699747468306
 21
10.699747468306
 31
0.0
  0
LINE
  5
98
100
AcDbEntity
  8
0
100
AcDbLine
 10
10.074062352298
 20
12.0325393655
 30
0.0
 11
11.053300858899
 21
11.053300858899
 31
0.0
  0
LINE
  5
99
100
AcDbEntity
  8
0
100
AcDbLine
 10
10.723479039848
 20
12.090229459137
 30
0.0
 11
11.406854249492
 21
11.406854249492
 31
0.0
  0
LINE
  5
9A
100
AcDbEntity
  8
0
100
AcDbLine
 10
11.313575240974
 20
12.207240039198
 30
0.0
 11
11.760407640086
 21
11.760407640086
 31
0.0
  0
LINE
  5
9B
100
AcDbEntity
  8
0
100
AcDbLine
 10
11.863961030679
 20
12.363961030679
 30
0.0
 11
12.113961030679
 21
12.113961030679
 31
0.0
  0
LINE
  5
9C
100
AcDbEntity
  8
0
100
AcDbLine
 10
12.356601717798
 20
12.578427124746
 30
0.0
 11
12.467514421272
 21
12.467514421272
 31
0.0
  0
LINE
  5
D3
100
AcDbEntity
  8
0
100
AcDbLine
 10
7.406854249492
 20
12.578427124746
 30
0.0
 11
9.992640687119
 21
9.992640687119
 31
0.0
  0
LINE
  5
D5
100
AcDbEntity
  8
0
100
AcDbLine
 10
4.381727983645
 20
15.881727983645
 30
0.0
 11
4.52491582851
 21
15.52491582851
 31
0.0
  0
LINE
  5
D6
100
AcDbEntity
  8
0
100
AcDbLine
 10
4.52491582851
 20
15.52491582851
 30
0.0
 11
4.578427124746
 21
15.406854249492
 31
0.0
  0
LINE
  5
D7
100
AcDbEntity
  8
0
100
AcDbLine
 10
4.578427124746
 20
15.406854249492
 30
0.0
 11
4.68679452413
 21
15.18679452413
 31
0.0
  0
LINE
  5
D8
100
AcDbEntity
  8
0
100
AcDbLine
 10
4.68679452413
 20
15.18679452413
 30
0.0
 11
4.866133382593
 21
14.866133382593
 31
0.0
  0
LINE
  5
D9
100
AcDbEntity
  8
0
100
AcDbLine
 10
4.866133382593
 20
14.866133382593
 30
0.0
 11
5.06202283462
 21
14.56202283462
 31
0.0
  0
LINE
  5
DA
100
AcDbEntity
  8
0
100
AcDbLine
 10
5.06202283462
 20
14.56202283462
 30
0.0
 11
5.273808802357
 21
14.273808802357
 31
0.0
  0
LINE
  5
DB
100
AcDbEntity
  8
0
100
AcDbLine
 10
5.273808802357
 20
14.273808802357
 30
0.0
 11
5.501050073181
 21
14.001050073181
 31
0.0
  0
LINE
  5
DC
100
AcDbEntity
  8
0
100
AcDbLine
 10
5.501050073181
 20
14.001050073181
 30
0.0
 11
5.743491644334
 21
13.743491644334
 31
0.0
  0
LINE
  5
DD
100
AcDbEntity
  8
0
100
AcDbLine
 10
5.743491644334
 20
13.743491644334
 30
0.0
 11
6.001050073181
 21
13.501050073181
 31
0.0
  0
LINE
  5
DE
100
AcDbEntity
  8
0
100
AcDbLine
 10
6.001050073181
 20
13.501050073181
 30
0.0
 11
6.273808802357
 21
13.273808802357
 31
0.0
  0
LINE
  5
DF
100
AcDbEntity
  8
0
100
AcDbLine
 10
6.273808802357
 20
13.273808802357
 30
0.0
 11
6.56202283462
 21
13.06202283462
 31
0.0
  0
LINE
  5
E0
100
AcDbEntity
  8
0
100
AcDbLine
 10
6.56202283462
 20
13.06202283462
 30
0.0
 11
6.866133382593
 21
12.866133382593
 31
0.0
  0
LINE
  5
E1
100
AcDbEntity
  8
0
100
AcDbLine
 10
6.866133382593
 20
12.866133382593
 30
0.0
 11
7.18679452413
 21
12.68679452413
 31
0.0
  0
LINE
  5
E2
100
AcDbEntity
  8
0
100
AcDbLine
 10
7.18679452413
 20
12.68679452413
 30
0.0
 11
7.406854249492
 21
12.578427124746
 31
0.0
  0
LINE
  5
E3
100
AcDbEntity
  8
0
100
AcDbLine
 10
7.406854249492
 20
12.578427124746
 30
0.0
 11
7.52491582851
 21
12.52491582851
 31
0.0
  0
LINE
  5
E4
100
AcDbEntity
  8
0
100
AcDbLine
 10
7.52491582851
 20
12.52491582851
 30
0.0
 11
7.881727983645
 21
12.381727983645
 31
0.0
  0
LINE
  5
E5
100
AcDbEntity
  8
0
100
AcDbLine
 10
7.881727983645
 20
12.381727983645
 30
0.0
 11
8.258883797098
 21
12.258883797098
 31
0.0
  0
LINE
  5
E6
100
AcDbEntity
  8
0
100
AcDbLine
 10
8.258883797098
 20
12.258883797098
 30
0.0
 11
8.496775394473
 21
12.195612760952
 31
0.0
  0
LINE
  5
E7
100
AcDbEntity
  8
0
100
AcDbLine
 10
8.496775394473
 20
12.195612760952
 30
0.0
 11
8.658616986283
 21
12.158616986283
 31
0.0
  0
LINE
  5
E8
100
AcDbEntity
  8
0
100
AcDbLine
 10
8.658616986283
 20
12.158616986283
 30
0.0
 11
9.084001494077
 21
12.084001494077
 31
0.0
  0
LINE
  5
E9
100
AcDbEntity
  8
0
100
AcDbLine
 10
9.084001494077
 20
12.084001494077
 30
0.0
 11
9.34549877937
 21
12.053996157241
 31
0.0
  0
LINE
  5
EA
100
AcDbEntity
  8
0
100
AcDbLine
 10
9.34549877937
 20
12.053996157241
 30
0.0
 11
9.539398764432
 21
12.039398764432
 31
0.0
  0
LINE
  5
EB
100
AcDbEntity
  8
0
100
AcDbLine
 10
9.539398764432
 20
12.039398764432
 30
0.0
 11
10.031289420897
 21
12.031289420897
 31
0.0
  0
LINE
  5
EC
100
AcDbEntity
  8
0
100
AcDbLine
 10
10.031289420897
 20
12.031289420897
 30
0.0
 11
10.074062352298
 21
12.0325393655
 31
0.0
  0
LINE
  5
ED
100
AcDbEntity
  8
0
100
AcDbLine
 10
10.074062352298
 20
12.0325393655
 30
0.0
 11
10.569990292155
 21
12.069990292155
 31
0.0
  0
LINE
  5
EE
100
AcDbEntity
  8
0
100
AcDbLine
 10
10.569990292155
 20
12.069990292155
 30
0.0
 11
10.723479039848
 21
12.090229459137
 31
0.0
  0
LINE
  5
EF
100
AcDbEntity
  8
0
100
AcDbLine
 10
10.723479039848
 20
12.090229459137
 30
0.0
 11
11.173787767063
 21
12.173787767063
 31
0.0
  0
LINE
  5
F0
100
AcDbEntity
  8
0
100
AcDbLine
 10
11.173787767063
 20
12.173787767063
 30
0.0
 11
11.313575240974
 21
12.207240039198
 31
0.0
  0
LINE
  5
F1
100
AcDbEntity
  8
0
100
AcDbLine
 10
11.313575240974
 20
12.207240039198
 30
0.0
 11
11.863961030679
 21
12.363961030679
 31
0.0
  0
LINE
  5
F2
100
AcDbEntity
  8
0
100
AcDbLine
 10
11.863961030679
 20
12.363961030679
 30
0.0
 11
12.356601717798
 21
12.578427124746
 31
0.0
  0
LINE
  5
F3
100
AcDbEntity
  8
0
100
AcDbLine
 10
12.356601717798
 20
12.578427124746
 30
0.0
 11
12.821067811865
 21
12.821067811865
 31
0.0
  0
LINE
  5
F4
100
AcDbEntity
  8
0
100
AcDbLine
 10
6.828427124746
 20
10.328427124746
 30
0.0
 11
6.724873734153
 21
9.724873734153
 31
0.0
  0
LINE
  5
F5
100
AcDbEntity
  8
0
100
AcDbLine
 10
6.724873734153
 20
9.724873734153
 30
0.0
 11
6.12132034356
 21
9.62132034356
 31
0.0
  0
LINE
  5
F6
100
AcDbEntity
  8
0
100
AcDbLine
 10
6.12132034356
 20
9.62132034356
 30
0.0
 11
6.224873734153
 21
10.224873734153
 31
0.0
  0
LINE
  5
F9
100
AcDbEntity
  8
0
100
AcDbLine
 10
6.931980515339
 20
10.931980515339
 30
0.0
 11
7.535533905933
 21
11.035533905933
 31
0.0
  0
LINE
  5
FA
100
AcDbEntity
  8
0
100
AcDbLine
 10
7.535533905933
 20
11.035533905933
 30
0.0
 11
7.431980515339
 21
10.431980515339
 31
0.0
  0
LINE
  5
FB
100
AcDbEntity
  8
0
100
AcDbLine
 10
7.431980515339
 20
10.431980515339
 30
0.0
 11
6.828427124746
 21
10.328427124746
 31
0.0
  0
LINE
  5
FE
100
AcDbEntity
  8
0
100
AcDbLine
 10
6.931980515339
 20
10.931980515339
 30
0.0
 11
7.035533905933
 21
11.535533905933
 31
0.0
  0
LINE
  5
FF
100
AcDbEntity
  8
0
100
AcDbLine
 10
7.035533905933
 20
11.535533905933
 30
0.0
 11
6.431980515339
 21
11.431980515339
 31
0.0
  0
LINE
  5
100
100
AcDbEntity
  8
0
100
AcDbLine
 10
6.431980515339
 20
11.431980515339
 30
0.0
 11
6.328427124746
 21
10.828427124746
 31
0.0
  0
LINE
  5
101
100
AcDbEntity
  8
0
100
AcDbLine
 10
6.328427124746
 20
10.828427124746
 30
0.0
 11
5.724873734153
 21
10.724873734153
 31
0.0
  0
LINE
  5
102
100
AcDbEntity
  8
0
100
AcDbLine
 10
5.724873734153
 20
10.724873734153
 30
0.0
 11
5.62132034356
 21
10.12132034356
 31
0.0
  0
LINE
  5
103
100
AcDbEntity
  8
0
100
AcDbLine
 10
5.62132034356
 20
10.12132034356
 30
0.0
 11
6.224873734153
 21
10.224873734153
 31
0.0
  0
LINE
  5
104
100
AcDbEntity
  8
0
100
AcDbLine
 10
7.035533905933
 20
11.535533905933
 30
0.0
 11
7.881727983645
 21
12.381727983645
 31
0.0
  0
LINE
  5
105
100
AcDbEntity
  8
0
100
AcDbLine
 10
7.431980515339
 20
10.431980515339
 30
0.0
 11
8.931980515339
 21
8.931980515339
 31
0.0
  0
LINE
  5
106
100
AcDbEntity
  8
0
100
AcDbLine
 10
6.828427124746
 20
10.328427124746
 30
0.0
 11
8.578427124746
 21
8.578427124746
 31
0.0
  0
LINE
  5
107
100
AcDbEntity
  8
0
100
AcDbLine
 10
6.931980515339
 20
10.931980515339
 30
0.0
 11
8.258883797098
 21
12.258883797098
 31
0.0
  0
LINE
  5
108
100
AcDbEntity
  8
0
100
AcDbLine
 10
7.535533905933
 20
11.035533905933
 30
0.0
 11
8.658616986283
 21
12.158616986283
 31
0.0
  0
LINE
  5
109
100
AcDbEntity
  8
0
100
AcDbLine
 10
6.724873734153
 20
9.724873734153
 30
0.0
 11
8.224873734153
 21
8.224873734153
 31
0.0
  0
LINE
  5
10A
100
AcDbEntity
  8
0
100
AcDbLine
 10
2.323129698513
 20
12.323129698513
 30
0.0
 11
3.573129698513
 21
11.073129698513
 31
0.0
  0
LINE
  5
10B
100
AcDbEntity
  8
0
100
AcDbLine
 10
1.96957630792
 20
11.96957630792
 30
0.0
 11
3.21957630792
 21
10.71957630792
 31
0.0
  0
LINE
  5
10C
100
AcDbEntity
  8
0
100
AcDbLine
 10
1.616022917327
 20
11.616022917327
 30
0.0
 11
2.866022917327
 21
10.366022917327
 31
0.0
  0
LINE
  5
10D
100
AcDbEntity
  8
0
100
AcDbLine
 10
2.676683089106
 20
12.676683089106
 30
0.0
 11
3.926683089106
 21
11.426683089106
 31
0.0
  0
LINE
  5
10E
100
AcDbEntity
  8
0
100
AcDbLine
 10
3.50665518234
 20
12.235985504779
 30
0.0
 11
2.092441619967
 21
10.821771942406
 31
0.0
  0
LINE
  5
10F
100
AcDbEntity
  8
0
100
AcDbLine
 10
3.25665518234
 20
12.485985504779
 30
0.0
 11
1.842441619967
 21
11.071771942406
 31
0.0
  0
LINE
  5
110
100
AcDbEntity
  8
0
100
AcDbLine
 10
3.00665518234
 20
12.735985504779
 30
0.0
 11
1.592441619967
 21
11.321771942406
 31
0.0
  0
LINE
  5
111
100
AcDbEntity
  8
0
100
AcDbLine
 10
3.75665518234
 20
11.985985504779
 30
0.0
 11
2.342441619967
 21
10.571771942406
 31
0.0
  0
LINE
  5
112
100
AcDbEntity
  8
0
100
AcDbLine
 10
4.00665518234
 20
11.735985504779
 30
0.0
 11
2.592441619967
 21
10.321771942406
 31
0.0
  0
LINE
  5
114
100
AcDbEntity
  8
0
100
AcDbLine
 10
0.0
 20
10.792893218813
 30
0.0
 11
5.396446609407
 21
5.396446609407
 31
0.0
  0
LINE
  5
115
100
AcDbEntity
  8
0
100
AcDbLine
 10
0.0
 20
10.085786437627
 30
0.0
 11
4.99924932407
 21
5.086537113557
 31
0.0
  0
LINE
  5
116
100
AcDbEntity
  8
0
100
AcDbLine
 10
0.0
 20
9.37867965644
 30
0.0
 11
4.590667105949
 21
4.788012550492
 31
0.0
  0
LINE
  5
117
100
AcDbEntity
  8
0
100
AcDbLine
 10
0.0
 20
8.671572875254
 30
0.0
 11
4.159160640029
 21
4.512412235225
 31
0.0
  0
LINE
  5
118
100
AcDbEntity
  8
0
100
AcDbLine
 10
0.0
 20
7.964466094067
 30
0.0
 11
3.732233047034
 21
4.232233047034
 31
0.0
  0
LINE
  5
119
100
AcDbEntity
  8
0
100
AcDbLine
 10
0.0
 20
7.257359312881
 30
0.0
 11
3.223069238048
 21
4.034290074832
 31
0.0
  0
LINE
  5
11A
100
AcDbEntity
  8
0
100
AcDbLine
 10
0.0
 20
6.550252531694
 30
0.0
 11
2.715261138854
 21
3.83499139284
 31
0.0
  0
LINE
  5
11B
100
AcDbEntity
  8
0
100
AcDbLine
 10
0.0
 20
5.843145750508
 30
0.0
 11
2.171572875254
 21
3.671572875254
 31
0.0
  0
LINE
  5
11C
100
AcDbEntity
  8
0
100
AcDbLine
 10
0.0
 20
5.136038969321
 30
0.0
 11
1.568019484661
 21
3.568019484661
 31
0.0
  0
LINE
  5
11D
100
AcDbEntity
  8
0
100
AcDbLine
 10
0.0
 20
4.428932188135
 30
0.0
 11
0.964466094067
 21
3.464466094067
 31
0.0
  0
LINE
  5
11E
100
AcDbEntity
  8
0
100
AcDbLine
 10
0.0
 20
3.721825406948
 30
0.0
 11
0.360912703474
 21
3.360912703474
 31
0.0
  0
LINE
  5
120
100
AcDbEntity
  8
0
100
AcDbLine
 10
0.0
 20
11.5
 30
0.0
 11
0.0
 21
3.368272016355
 31
0.0
  0
LINE
  5
121
100
AcDbEntity
  8
0
100
AcDbLine
 10
0.0
 20
3.368272016355
 30
0.0
 11
0.360912703474
 21
3.360912703474
 31
0.0
  0
LINE
  5
122
100
AcDbEntity
  8
0
100
AcDbLine
 10
0.360912703474
 20
3.360912703474
 30
0.0
 11
0.964466094067
 21
3.464466094067
 31
0.0
  0
LINE
  5
123
100
AcDbEntity
  8
0
100
AcDbLine
 10
0.964466094067
 20
3.464466094067
 30
0.0
 11
1.568019484661
 21
3.568019484661
 31
0.0
  0
LINE
  5
124
100
AcDbEntity
  8
0
100
AcDbLine
 10
1.568019484661
 20
3.568019484661
 30
0.0
 11
2.171572875254
 21
3.671572875254
 31
0.0
  0
LINE
  5
125
100
AcDbEntity
  8
0
100
AcDbLine
 10
2.171572875254
 20
3.671572875254
 30
0.0
 11
2.715261138854
 21
3.83499139284
 31
0.0
  0
LINE
  5
126
100
AcDbEntity
  8
0
100
AcDbLine
 10
2.715261138854
 20
3.83499139284
 30
0.0
 11
2.904792120088
 21
3.904792120088
 31
0.0
  0
LINE
  5
127
100
AcDbEntity
  8
0
100
AcDbLine
 10
2.904792120088
 20
3.904792120088
 30
0.0
 11
3.223069238048
 21
4.034290074832
 31
0.0
  0
LINE
  5
128
100
AcDbEntity
  8
0
100
AcDbLine
 10
3.223069238048
 20
4.034290074832
 30
0.0
 11
3.732233047034
 21
4.232233047034
 31
0.0
  0
LINE
  5
129
100
AcDbEntity
  8
0
100
AcDbLine
 10
3.732233047034
 20
4.232233047034
 30
0.0
 11
4.159160640029
 21
4.512412235225
 31
0.0
  0
LINE
  5
12A
100
AcDbEntity
  8
0
100
AcDbLine
 10
4.159160640029
 20
4.512412235225
 30
0.0
 11
4.590667105949
 21
4.788012550492
 31
0.0
  0
LINE
  5
12B
100
AcDbEntity
  8
0
100
AcDbLine
 10
4.590667105949
 20
4.788012550492
 30
0.0
 11
4.99924932407
 21
5.086537113557
 31
0.0
  0
LINE
  5
12C
100
AcDbEntity
  8
0
100
AcDbLine
 10
4.99924932407
 20
5.086537113557
 30
0.0
 11
5.396446609407
 21
5.396446609407
 31
0.0
  0
LINE
  5
1B0
100
AcDbEntity
  8
0
100
AcDbLine
 10
-5.34603914513
 20
8.776057001563
 30
0.0
 11
-7.245422686353
 21
7.808272748959
 31
0.0
  0
LINE
  5
1B1
100
AcDbEntity
  8
0
100
AcDbLine
 10
-5.196152422707
 20
8.5
 30
0.0
 11
-7.042283010502
 21
7.434136008177
 31
0.0
  0
LINE
  5
1B2
100
AcDbEntity
  8
0
100
AcDbLine
 10
-5.032023407673
 20
8.23216578991
 30
0.0
 11
-6.819840926421
 21
7.071143517983
 31
0.0
  0
LINE
  5
1B3
100
AcDbEntity
  8
0
100
AcDbLine
 10
-4.85410196625
 20
7.973288486245
 30
0.0
 11
-6.578706132403
 21
6.720290215559
 31
0.0
  0
LINE
  5
1B4
100
AcDbEntity
  8
0
100
AcDbLine
 10
-4.662875768742
 20
7.724077653701
 30
0.0
 11
-6.319539562157
 21
6.382537765421
 31
0.0
  0
LINE
  5
1B5
100
AcDbEntity
  8
0
100
AcDbLine
 10
-4.458868952864
 20
7.485216361847
 30
0.0
 11
-6.043051573236
 21
6.058811923558
 31
0.0
  0
LINE
  5
1B6
100
AcDbEntity
  8
0
100
AcDbLine
 10
-4.242640687119
 20
7.257359312881
 30
0.0
 11
-5.75
 21
5.75
 31
0.0
  0
LINE
  5
1B7
100
AcDbEntity
  8
0
100
AcDbLine
 10
-4.014783638153
 20
7.041131047136
 30
0.0
 11
-5.441188076442
 21
5.456948426764
 31
0.0
  0
LINE
  5
1B8
100
AcDbEntity
  8
0
100
AcDbLine
 10
-3.770747575954
 20
6.843514540443
 30
0.0
 11
-5.117462234579
 21
5.180460437843
 31
0.0
  0
LINE
  5
1B9
100
AcDbEntity
  8
0
100
AcDbLine
 10
-3.526711513755
 20
6.64589803375
 30
0.0
 11
-4.779709784441
 21
4.921293867597
 31
0.0
  0
LINE
  5
1BA
100
AcDbEntity
  8
0
100
AcDbLine
 10
-3.26783421009
 20
6.467976592327
 30
0.0
 11
-4.428856482017
 21
4.680159073578
 31
0.0
  0
LINE
  5
1BB
100
AcDbEntity
  8
0
100
AcDbLine
 10
-3.0
 20
6.303847577293
 30
0.0
 11
-4.065863991823
 21
4.457716989498
 31
0.0
  0
LINE
  5
1BC
100
AcDbEntity
  8
0
100
AcDbLine
 10
-2.723942998437
 20
6.15396085487
 30
0.0
 11
-3.691727251041
 21
4.254577313647
 31
0.0
  0
LINE
  5
1BD
100
AcDbEntity
  8
0
100
AcDbLine
 10
-2.440419858455
 20
6.018727254144
 30
0.0
 11
-3.307471742473
 21
4.071296837756
 31
0.0
  0
LINE
  5
1BE
100
AcDbEntity
  8
0
100
AcDbLine
 10
-2.150207697272
 20
5.898517441017
 30
0.0
 11
-2.914150683759
 21
3.908377920869
 31
0.0
  0
LINE
  5
1BF
100
AcDbEntity
  8
0
100
AcDbLine
 10
-1.85410196625
 20
5.793660902229
 30
0.0
 11
-2.512842140581
 21
3.766267112414
 31
0.0
  0
LINE
  5
1C0
100
AcDbEntity
  8
0
100
AcDbLine
 10
-1.552914270615
 20
5.704445042266
 30
0.0
 11
-2.10464607176
 21
3.645353928239
 31
0.0
  0
LINE
  5
1C1
100
AcDbEntity
  8
0
100
AcDbLine
 10
-1.247470144907
 20
5.631114395597
 30
0.0
 11
-1.69068131435
 21
3.545969782977
 31
0.0
  0
LINE
  5
1C2
100
AcDbEntity
  8
0
100
AcDbLine
 10
-0.938606790241
 20
5.573869956429
 30
0.0
 11
-1.272082516974
 21
3.468387081662
 31
0.0
  0
LINE
  5
1C3
100
AcDbEntity
  8
0
100
AcDbLine
 10
-0.627170779606
 20
5.53286862779
 30
0.0
 11
-0.849997029841
 21
3.412818473086
 31
0.0
  0
LINE
  5
1C4
100
AcDbEntity
  8
0
100
AcDbLine
 10
-0.314015737458
 20
5.508222791473
 30
0.0
 11
-0.425581759932
 21
3.379416266942
 31
0.0
  0
LINE
  5
1C6
100
AcDbEntity
  8
0
100
AcDbLine
 10
-7.428703162244
 20
8.192528257527
 30
0.0
 11
-5.481272745856
 21
9.059580141545
 31
0.0
  0
LINE
  5
1C8
100
AcDbEntity
  8
0
100
AcDbLine
 10
-7.428703162244
 20
8.192528257527
 30
0.0
 11
-7.245422686353
 21
7.808272748959
 31
0.0
  0
LINE
  5
1C9
100
AcDbEntity
  8
0
100
AcDbLine
 10
-7.245422686353
 20
7.808272748959
 30
0.0
 11
-7.042283010502
 21
7.434136008177
 31
0.0
  0
LINE
  5
1CA
100
AcDbEntity
  8
0
100
AcDbLine
 10
-7.042283010502
 20
7.434136008177
 30
0.0
 11
-6.819840926421
 21
7.071143517983
 31
0.0
  0
LINE
  5
1CB
100
AcDbEntity
  8
0
100
AcDbLine
 10
-6.819840926421
 20
7.071143517983
 30
0.0
 11
-6.578706132403
 21
6.720290215559
 31
0.0
  0
LINE
  5
1CC
100
AcDbEntity
  8
0
100
AcDbLine
 10
-6.578706132403
 20
6.720290215559
 30
0.0
 11
-6.319539562157
 21
6.382537765421
 31
0.0
  0
LINE
  5
1CD
100
AcDbEntity
  8
0
100
AcDbLine
 10
-6.319539562157
 20
6.382537765421
 30
0.0
 11
-6.043051573236
 21
6.058811923558
 31
0.0
  0
LINE
  5
1CE
100
AcDbEntity
  8
0
100
AcDbLine
 10
-6.043051573236
 20
6.058811923558
 30
0.0
 11
-5.75
 21
5.75
 31
0.0
  0
LINE
  5
1CF
100
AcDbEntity
  8
0
100
AcDbLine
 10
-5.75
 20
5.75
 30
0.0
 11
-5.441188076442
 21
5.456948426764
 31
0.0
  0
LINE
  5
1D0
100
AcDbEntity
  8
0
100
AcDbLine
 10
-7.308363661141
 20
8.246106855394
 30
0.0
 11
-7.128052193507
 21
7.868076002084
 31
0.0
  0
LINE
  5
1D1
100
AcDbEntity
  8
0
100
AcDbLine
 10
-7.128052193507
 20
7.868076002084
 30
0.0
 11
-6.928203230275
 21
7.5
 31
0.0
  0
LINE
  5
1D2
100
AcDbEntity
  8
0
100
AcDbLine
 10
-6.928203230275
 20
7.5
 30
0.0
 11
-6.709364543563
 21
7.14288771988
 31
0.0
  0
LINE
  5
1D3
100
AcDbEntity
  8
0
100
AcDbLine
 10
-6.709364543563
 20
7.14288771988
 30
0.0
 11
-6.472135955
 21
6.79771798166
 31
0.0
  0
LINE
  5
1D4
100
AcDbEntity
  8
0
100
AcDbLine
 10
-6.472135955
 20
6.79771798166
 30
0.0
 11
-6.217167691656
 21
6.465436871601
 31
0.0
  0
LINE
  5
1D5
100
AcDbEntity
  8
0
100
AcDbLine
 10
-6.217167691656
 20
6.465436871601
 30
0.0
 11
-5.945158603819
 21
6.146955149129
 31
0.0
  0
LINE
  5
1D6
100
AcDbEntity
  8
0
100
AcDbLine
 10
-5.945158603819
 20
6.146955149129
 30
0.0
 11
-5.656854249492
 21
5.843145750508
 31
0.0
  0
LINE
  5
1D7
100
AcDbEntity
  8
0
100
AcDbLine
 10
-5.656854249492
 20
5.843145750508
 30
0.0
 11
-5.353044850871
 21
5.554841396181
 31
0.0
  0
LINE
  5
1D8
100
AcDbEntity
  8
0
100
AcDbLine
 10
-7.105716068234
 20
8.336331376765
 30
0.0
 11
-6.930404308686
 21
7.968782629439
 31
0.0
  0
LINE
  5
1D9
100
AcDbEntity
  8
0
100
AcDbLine
 10
-6.930404308686
 20
7.968782629439
 30
0.0
 11
-6.736096792654
 21
7.610912703474
 31
0.0
  0
LINE
  5
1DA
100
AcDbEntity
  8
0
100
AcDbLine
 10
-6.736096792654
 20
7.610912703474
 30
0.0
 11
-6.523326103534
 21
7.263702495462
 31
0.0
  0
LINE
  5
1DB
100
AcDbEntity
  8
0
100
AcDbLine
 10
-6.523326103534
 20
7.263702495462
 30
0.0
 11
-6.292675430995
 21
6.928103684448
 31
0.0
  0
LINE
  5
1DC
100
AcDbEntity
  8
0
100
AcDbLine
 10
-6.292675430995
 20
6.928103684448
 30
0.0
 11
-6.044776972498
 21
6.605036123447
 31
0.0
  0
LINE
  5
1DD
100
AcDbEntity
  8
0
100
AcDbLine
 10
-6.044776972498
 20
6.605036123447
 30
0.0
 11
-5.780310200486
 21
6.295385318186
 31
0.0
  0
LINE
  5
1DE
100
AcDbEntity
  8
0
100
AcDbLine
 10
-5.780310200486
 20
6.295385318186
 30
0.0
 11
-5.5
 21
6.0
 31
0.0
  0
LINE
  5
1DF
100
AcDbEntity
  8
0
100
AcDbLine
 10
-5.5
 20
6.0
 30
0.0
 11
-5.204614681814
 21
5.719689799514
 31
0.0
  0
LINE
  5
1E0
100
AcDbEntity
  8
0
100
AcDbLine
 10
-5.204614681814
 20
5.719689799514
 30
0.0
 11
-4.894963876553
 21
5.455223027502
 31
0.0
  0
LINE
  5
1E1
100
AcDbEntity
  8
0
100
AcDbLine
 10
-6.85159093232
 20
8.449475176931
 30
0.0
 11
-6.682548931413
 21
8.095071251953
 31
0.0
  0
LINE
  5
1E2
100
AcDbEntity
  8
0
100
AcDbLine
 10
-6.682548931413
 20
8.095071251953
 30
0.0
 11
-6.495190528383
 21
7.75
 31
0.0
  0
LINE
  5
1E3
100
AcDbEntity
  8
0
100
AcDbLine
 10
-6.495190528383
 20
7.75
 30
0.0
 11
-6.290029259591
 21
7.415207237387
 31
0.0
  0
LINE
  5
1E4
100
AcDbEntity
  8
0
100
AcDbLine
 10
-6.290029259591
 20
7.415207237387
 30
0.0
 11
-6.067627457812
 21
7.091610607806
 31
0.0
  0
LINE
  5
1E5
100
AcDbEntity
  8
0
100
AcDbLine
 10
-6.067627457812
 20
7.091610607806
 30
0.0
 11
-5.828594710927
 21
6.780097067126
 31
0.0
  0
LINE
  5
1E6
100
AcDbEntity
  8
0
100
AcDbLine
 10
-5.828594710927
 20
6.780097067126
 30
0.0
 11
-5.57358619108
 21
6.481520452309
 31
0.0
  0
LINE
  5
1E7
100
AcDbEntity
  8
0
100
AcDbLine
 10
-5.57358619108
 20
6.481520452309
 30
0.0
 11
-5.303300858899
 21
6.196699141101
 31
0.0
  0
LINE
  5
1E8
100
AcDbEntity
  8
0
100
AcDbLine
 10
-5.303300858899
 20
6.196699141101
 30
0.0
 11
-5.018479547691
 21
5.92641380892
 31
0.0
  0
LINE
  5
1E9
100
AcDbEntity
  8
0
100
AcDbLine
 10
-5.018479547691
 20
5.92641380892
 30
0.0
 11
-4.719902932874
 21
5.671405289073
 31
0.0
  0
LINE
  5
1EA
100
AcDbEntity
  8
0
100
AcDbLine
 10
-6.459741880213
 20
8.62393761524
 30
0.0
 11
-6.300367553351
 21
8.289802390399
 31
0.0
  0
LINE
  5
1EB
100
AcDbEntity
  8
0
100
AcDbLine
 10
-6.300367553351
 20
8.289802390399
 30
0.0
 11
-6.123724356958
 21
7.964466094067
 31
0.0
  0
LINE
  5
1EC
100
AcDbEntity
  8
0
100
AcDbLine
 10
-6.123724356958
 20
7.964466094067
 30
0.0
 11
-5.930296457758
 21
7.64882045042
 31
0.0
  0
LINE
  5
1ED
100
AcDbEntity
  8
0
100
AcDbLine
 10
-5.930296457758
 20
7.64882045042
 30
0.0
 11
-5.720614028177
 21
7.343730622225
 31
0.0
  0
LINE
  5
1EE
100
AcDbEntity
  8
0
100
AcDbLine
 10
-5.720614028177
 20
7.343730622225
 30
0.0
 11
-5.254827454988
 21
6.768532107442
 31
0.0
  0
LINE
  5
1EF
100
AcDbEntity
  8
0
100
AcDbLine
 10
-5.254827454988
 20
6.768532107442
 30
0.0
 11
-4.731467892558
 21
6.245172545012
 31
0.0
  0
LINE
  5
1F0
100
AcDbEntity
  8
0
100
AcDbLine
 10
-4.731467892558
 20
6.245172545012
 30
0.0
 11
-4.156269377775
 21
5.779385971823
 31
0.0
  0
LINE
  5
1F1
100
AcDbEntity
  8
0
100
AcDbLine
 10
-4.156269377775
 20
5.779385971823
 30
0.0
 11
-3.532931995911
 21
5.380782283396
 31
0.0
  0
LINE
  5
1F2
100
AcDbEntity
  8
0
100
AcDbLine
 10
-6.394818203498
 20
8.652843498469
 30
0.0
 11
-6.062177826491
 21
8.0
 31
0.0
  0
LINE
  5
1F3
100
AcDbEntity
  8
0
100
AcDbLine
 10
-6.062177826491
 20
8.0
 30
0.0
 11
-5.663118960625
 21
7.385503233953
 31
0.0
  0
LINE
  5
1F4
100
AcDbEntity
  8
0
100
AcDbLine
 10
-5.663118960625
 20
7.385503233953
 30
0.0
 11
-5.202013778342
 21
6.816085755488
 31
0.0
  0
LINE
  5
1F5
100
AcDbEntity
  8
0
100
AcDbLine
 10
-5.202013778342
 20
6.816085755488
 30
0.0
 11
-4.683914244512
 21
6.297986221658
 31
0.0
  0
LINE
  5
1F6
100
AcDbEntity
  8
0
100
AcDbLine
 10
-4.683914244512
 20
6.297986221658
 30
0.0
 11
-4.114496766047
 21
5.836881039375
 31
0.0
  0
LINE
  5
1F7
100
AcDbEntity
  8
0
100
AcDbLine
 10
-4.114496766047
 20
5.836881039375
 30
0.0
 11
-3.5
 21
5.437822173509
 31
0.0
  0
LINE
  5
1F8
100
AcDbEntity
  8
0
100
AcDbLine
 10
-5.938045474677
 20
8.856211820007
 30
0.0
 11
-5.791542407224
 21
8.549061751693
 31
0.0
  0
LINE
  5
1F9
100
AcDbEntity
  8
0
100
AcDbLine
 10
-5.791542407224
 20
8.549061751693
 30
0.0
 11
-5.629165124599
 21
8.25
 31
0.0
  0
LINE
  5
1FA
100
AcDbEntity
  8
0
100
AcDbLine
 10
-5.629165124599
 20
8.25
 30
0.0
 11
-5.451358691645
 21
7.959846272402
 31
0.0
  0
LINE
  5
1FB
100
AcDbEntity
  8
0
100
AcDbLine
 10
-5.451358691645
 20
7.959846272402
 30
0.0
 11
-5.258610463437
 21
7.679395860099
 31
0.0
  0
LINE
  5
1FC
100
AcDbEntity
  8
0
100
AcDbLine
 10
-5.258610463437
 20
7.679395860099
 30
0.0
 11
-5.05144874947
 21
7.409417458176
 31
0.0
  0
LINE
  5
1FD
100
AcDbEntity
  8
0
100
AcDbLine
 10
-5.05144874947
 20
7.409417458176
 30
0.0
 11
-4.830441365603
 21
7.150651058667
 31
0.0
  0
LINE
  5
1FE
100
AcDbEntity
  8
0
100
AcDbLine
 10
-4.830441365603
 20
7.150651058667
 30
0.0
 11
-4.596194077713
 21
6.903805922287
 31
0.0
  0
LINE
  5
1FF
100
AcDbEntity
  8
0
100
AcDbLine
 10
-4.596194077713
 20
6.903805922287
 30
0.0
 11
-4.349348941333
 21
6.669558634397
 31
0.0
  0
LINE
  5
200
100
AcDbEntity
  8
0
100
AcDbLine
 10
-4.349348941333
 20
6.669558634397
 30
0.0
 11
-4.090582541824
 21
6.44855125053
 31
0.0
  0
LINE
  5
201
100
AcDbEntity
  8
0
100
AcDbLine
 10
-4.090582541824
 20
6.44855125053
 30
0.0
 11
-3.820604139901
 21
6.241389536563
 31
0.0
  0
LINE
  5
202
100
AcDbEntity
  8
0
100
AcDbLine
 10
-3.820604139901
 20
6.241389536563
 30
0.0
 11
-3.540153727598
 21
6.048641308355
 31
0.0
  0
LINE
  5
203
100
AcDbEntity
  8
0
100
AcDbLine
 10
-3.540153727598
 20
6.048641308355
 30
0.0
 11
-3.25
 21
5.870834875401
 31
0.0
  0
LINE
  5
204
100
AcDbEntity
  8
0
100
AcDbLine
 10
-3.25
 20
5.870834875401
 30
0.0
 11
-2.950938248307
 21
5.708457592776
 31
0.0
  0
LINE
  5
205
100
AcDbEntity
  8
0
100
AcDbLine
 10
-2.950938248307
 20
5.708457592776
 30
0.0
 11
-2.643788179993
 21
5.561954525323
 31
0.0
  0
LINE
  5
206
100
AcDbEntity
  8
0
100
AcDbLine
 10
-2.643788179993
 20
5.561954525323
 30
0.0
 11
-2.329391672044
 21
5.431727227768
 31
0.0
  0
LINE
  5
207
100
AcDbEntity
  8
0
100
AcDbLine
 10
-5.813767692191
 20
8.911543853716
 30
0.0
 11
-5.670330798015
 21
8.610822151359
 31
0.0
  0
LINE
  5
208
100
AcDbEntity
  8
0
100
AcDbLine
 10
-5.670330798015
 20
8.610822151359
 30
0.0
 11
-5.511351921262
 21
8.318019484661
 31
0.0
  0
LINE
  5
209
100
AcDbEntity
  8
0
100
AcDbLine
 10
-5.511351921262
 20
8.318019484661
 30
0.0
 11
-5.337266811982
 21
8.033938405378
 31
0.0
  0
LINE
  5
20A
100
AcDbEntity
  8
0
100
AcDbLine
 10
-5.337266811982
 20
8.033938405378
 30
0.0
 11
-5.148552625359
 21
7.759357560003
 31
0.0
  0
LINE
  5
20B
100
AcDbEntity
  8
0
100
AcDbLine
 10
-5.148552625359
 20
7.759357560003
 30
0.0
 11
-4.945726613862
 21
7.495029555547
 31
0.0
  0
LINE
  5
20C
100
AcDbEntity
  8
0
100
AcDbLine
 10
-4.945726613862
 20
7.495029555547
 30
0.0
 11
-4.729344709489
 21
7.241678896698
 31
0.0
  0
LINE
  5
20D
100
AcDbEntity
  8
0
100
AcDbLine
 10
-4.729344709489
 20
7.241678896698
 30
0.0
 11
-4.5
 21
7.0
 31
0.0
  0
LINE
  5
20E
100
AcDbEntity
  8
0
100
AcDbLine
 10
-4.5
 20
7.0
 30
0.0
 11
-4.258321103302
 21
6.770655290511
 31
0.0
  0
LINE
  5
20F
100
AcDbEntity
  8
0
100
AcDbLine
 10
-4.258321103302
 20
6.770655290511
 30
0.0
 11
-4.004970444453
 21
6.554273386138
 31
0.0
  0
LINE
  5
210
100
AcDbEntity
  8
0
100
AcDbLine
 10
-4.004970444453
 20
6.554273386138
 30
0.0
 11
-3.740642439997
 21
6.351447374641
 31
0.0
  0
LINE
  5
211
100
AcDbEntity
  8
0
100
AcDbLine
 10
-3.740642439997
 20
6.351447374641
 30
0.0
 11
-3.466061594622
 21
6.162733188018
 31
0.0
  0
LINE
  5
212
100
AcDbEntity
  8
0
100
AcDbLine
 10
-3.466061594622
 20
6.162733188018
 30
0.0
 11
-3.181980515339
 21
5.988648078738
 31
0.0
  0
LINE
  5
213
100
AcDbEntity
  8
0
100
AcDbLine
 10
-3.181980515339
 20
5.988648078738
 30
0.0
 11
-2.889177848641
 21
5.829669201985
 31
0.0
  0
LINE
  5
214
100
AcDbEntity
  8
0
100
AcDbLine
 10
-2.889177848641
 20
5.829669201985
 30
0.0
 11
-2.588456146284
 21
5.686232307809
 31
0.0
  0
LINE
  5
215
100
AcDbEntity
  8
0
100
AcDbLine
 10
-2.588456146284
 20
5.686232307809
 30
0.0
 11
-2.280639665551
 21
5.558730546767
 31
0.0
  0
LINE
  5
216
100
AcDbEntity
  8
0
100
AcDbLine
 10
-2.280639665551
 20
5.558730546767
 30
0.0
 11
-1.96657211002
 21
5.447513392324
 31
0.0
  0
LINE
  5
217
100
AcDbEntity
  8
0
100
AcDbLine
 10
-5.481272745856
 20
9.059580141545
 30
0.0
 11
-5.34603914513
 21
8.776057001563
 31
0.0
  0
LINE
  5
218
100
AcDbEntity
  8
0
100
AcDbLine
 10
-5.34603914513
 20
8.776057001563
 30
0.0
 11
-5.196152422707
 21
8.5
 31
0.0
  0
LINE
  5
219
100
AcDbEntity
  8
0
100
AcDbLine
 10
-5.196152422707
 20
8.5
 30
0.0
 11
-5.032023407673
 21
8.23216578991
 31
0.0
  0
LINE
  5
21A
100
AcDbEntity
  8
0
100
AcDbLine
 10
-5.032023407673
 20
8.23216578991
 30
0.0
 11
-4.85410196625
 21
7.973288486245
 31
0.0
  0
LINE
  5
21B
100
AcDbEntity
  8
0
100
AcDbLine
 10
-4.85410196625
 20
7.973288486245
 30
0.0
 11
-4.662875768742
 21
7.724077653701
 31
0.0
  0
LINE
  5
21C
100
AcDbEntity
  8
0
100
AcDbLine
 10
-4.662875768742
 20
7.724077653701
 30
0.0
 11
-4.458868952864
 21
7.485216361847
 31
0.0
  0
LINE
  5
21D
100
AcDbEntity
  8
0
100
AcDbLine
 10
-4.458868952864
 20
7.485216361847
 30
0.0
 11
-4.242640687119
 21
7.257359312881
 31
0.0
  0
LINE
  5
21E
100
AcDbEntity
  8
0
100
AcDbLine
 10
-4.242640687119
 20
7.257359312881
 30
0.0
 11
-4.014783638153
 21
7.041131047136
 31
0.0
  0
LINE
  5
21F
100
AcDbEntity
  8
0
100
AcDbLine
 10
-4.014783638153
 20
7.041131047136
 30
0.0
 11
-3.526711513755
 21
6.64589803375
 31
0.0
  0
LINE
  5
220
100
AcDbEntity
  8
0
100
AcDbLine
 10
-3.526711513755
 20
6.64589803375
 30
0.0
 11
-3.26783421009
 21
6.467976592327
 31
0.0
  0
LINE
  5
221
100
AcDbEntity
  8
0
100
AcDbLine
 10
-3.26783421009
 20
6.467976592327
 30
0.0
 11
-3.0
 21
6.303847577293
 31
0.0
  0
LINE
  5
222
100
AcDbEntity
  8
0
100
AcDbLine
 10
-3.0
 20
6.303847577293
 30
0.0
 11
-2.723942998437
 21
6.15396085487
 31
0.0
  0
LINE
  5
223
100
AcDbEntity
  8
0
100
AcDbLine
 10
-2.723942998437
 20
6.15396085487
 30
0.0
 11
-2.440419858455
 21
6.018727254144
 31
0.0
  0
LINE
  5
224
100
AcDbEntity
  8
0
100
AcDbLine
 10
-2.440419858455
 20
6.018727254144
 30
0.0
 11
-2.150207697272
 21
5.898517441017
 31
0.0
  0
LINE
  5
225
100
AcDbEntity
  8
0
100
AcDbLine
 10
-2.150207697272
 20
5.898517441017
 30
0.0
 11
-1.85410196625
 21
5.793660902229
 31
0.0
  0
LINE
  5
226
100
AcDbEntity
  8
0
100
AcDbLine
 10
-1.85410196625
 20
5.793660902229
 30
0.0
 11
-1.552914270615
 21
5.704445042266
 31
0.0
  0
LINE
  5
227
100
AcDbEntity
  8
0
100
AcDbLine
 10
-1.552914270615
 20
5.704445042266
 30
0.0
 11
-1.247470144907
 21
5.631114395597
 31
0.0
  0
LINE
  5
228
100
AcDbEntity
  8
0
100
AcDbLine
 10
-1.247470144907
 20
5.631114395597
 30
0.0
 11
-0.938606790241
 21
5.573869956429
 31
0.0
  0
LINE
  5
229
100
AcDbEntity
  8
0
100
AcDbLine
 10
-0.938606790241
 20
5.573869956429
 30
0.0
 11
-0.627170779606
 21
5.53286862779
 31
0.0
  0
LINE
  5
22A
100
AcDbEntity
  8
0
100
AcDbLine
 10
-0.627170779606
 20
5.53286862779
 30
0.0
 11
-0.314015737458
 21
5.508222791473
 31
0.0
  0
LINE
  5
22B
100
AcDbEntity
  8
0
100
AcDbLine
 10
-0.314015737458
 20
5.508222791473
 30
0.0
 11
0.0
 21
5.5
 31
0.0
  0
LINE
  5
22C
100
AcDbEntity
  8
0
100
AcDbLine
 10
0.0
 20
5.136038969321
 30
0.0
 11
-0.333063986033
 21
5.144760556737
 31
0.0
  0
LINE
  5
22D
100
AcDbEntity
  8
0
100
AcDbLine
 10
-0.333063986033
 20
5.144760556737
 30
0.0
 11
-0.665215066832
 21
5.170901413719
 31
0.0
  0
LINE
  5
22E
100
AcDbEntity
  8
0
100
AcDbLine
 10
-0.665215066832
 20
5.170901413719
 30
0.0
 11
-0.995542839371
 21
5.214389889997
 31
0.0
  0
LINE
  5
22F
100
AcDbEntity
  8
0
100
AcDbLine
 10
-0.995542839371
 20
5.214389889997
 30
0.0
 11
-1.323141898187
 21
5.275106786678
 31
0.0
  0
LINE
  5
230
100
AcDbEntity
  8
0
100
AcDbLine
 10
-1.323141898187
 20
5.275106786678
 30
0.0
 11
-1.64711431703
 21
5.35288568297
 31
0.0
  0
LINE
  5
231
100
AcDbEntity
  8
0
100
AcDbLine
 10
-1.64711431703
 20
5.35288568297
 30
0.0
 11
-1.96657211002
 21
5.447513392324
 31
0.0
  0
LINE
  5
232
100
AcDbEntity
  8
0
100
AcDbLine
 10
-2.329391672044
 20
5.431727227768
 30
0.0
 11
-2.008610463437
 21
5.318132644081
 31
0.0
  0
LINE
  5
233
100
AcDbEntity
  8
0
100
AcDbLine
 10
-2.008610463437
 20
5.318132644081
 30
0.0
 11
-1.682323793166
 21
5.221482129121
 31
0.0
  0
LINE
  5
234
100
AcDbEntity
  8
0
100
AcDbLine
 10
-1.682323793166
 20
5.221482129121
 30
0.0
 11
-1.016824022761
 21
5.080025786132
 31
0.0
  0
LINE
  5
235
100
AcDbEntity
  8
0
100
AcDbLine
 10
-1.016824022761
 20
5.080025786132
 30
0.0
 11
-0.340183715579
 21
5.008908024095
 31
0.0
  0
LINE
  5
236
100
AcDbEntity
  8
0
100
AcDbLine
 10
-0.340183715579
 20
5.008908024095
 30
0.0
 11
0.0
 21
5.0
 31
0.0
  0
LINE
  5
237
100
AcDbEntity
  8
0
100
AcDbLine
 10
0.0
 20
4.5
 30
0.0
 11
-0.366351693701
 21
4.509593256718
 31
0.0
  0
LINE
  5
238
100
AcDbEntity
  8
0
100
AcDbLine
 10
-0.366351693701
 20
4.509593256718
 30
0.0
 11
-0.731699242874
 21
4.538346732422
 31
0.0
  0
LINE
  5
239
100
AcDbEntity
  8
0
100
AcDbLine
 10
-0.731699242874
 20
4.538346732422
 30
0.0
 11
-1.095041255282
 21
4.586181615834
 31
0.0
  0
LINE
  5
23A
100
AcDbEntity
  8
0
100
AcDbLine
 10
-1.095041255282
 20
4.586181615834
 30
0.0
 11
-1.455381835724
 21
4.652966794863
 31
0.0
  0
LINE
  5
23B
100
AcDbEntity
  8
0
100
AcDbLine
 10
-1.455381835724
 20
4.652966794863
 30
0.0
 11
-1.811733315718
 21
4.738519215977
 31
0.0
  0
LINE
  5
23C
100
AcDbEntity
  8
0
100
AcDbLine
 10
-1.811733315718
 20
4.738519215977
 30
0.0
 11
-2.163118960625
 21
4.842604385934
 31
0.0
  0
LINE
  5
23D
100
AcDbEntity
  8
0
100
AcDbLine
 10
-2.163118960625
 20
4.842604385934
 30
0.0
 11
-2.508575646817
 21
4.96493701452
 31
0.0
  0
LINE
  5
23E
100
AcDbEntity
  8
0
100
AcDbLine
 10
-2.508575646817
 20
4.96493701452
 30
0.0
 11
-2.847156501531
 21
5.105181796502
 31
0.0
  0
LINE
  5
23F
100
AcDbEntity
  8
0
100
AcDbLine
 10
-2.847156501531
 20
5.105181796502
 30
0.0
 11
-3.177933498177
 21
5.262954330681
 31
0.0
  0
LINE
  5
240
100
AcDbEntity
  8
0
100
AcDbLine
 10
-3.177933498177
 20
5.262954330681
 30
0.0
 11
-3.5
 21
5.437822173509
 31
0.0
  0
LINE
  5
241
100
AcDbEntity
  8
0
100
AcDbLine
 10
-3.535533905933
 20
5.376275643042
 30
0.0
 11
-3.210197609601
 21
5.199632446649
 31
0.0
  0
LINE
  5
242
100
AcDbEntity
  8
0
100
AcDbLine
 10
-3.210197609601
 20
5.199632446649
 30
0.0
 11
-2.876062384759
 21
5.040258119787
 31
0.0
  0
LINE
  5
243
100
AcDbEntity
  8
0
100
AcDbLine
 10
-2.876062384759
 20
5.040258119787
 30
0.0
 11
-2.534044072834
 21
4.898589496408
 31
0.0
  0
LINE
  5
244
100
AcDbEntity
  8
0
100
AcDbLine
 10
-2.534044072834
 20
4.898589496408
 30
0.0
 11
-2.183472053415
 21
4.779964007322
 31
0.0
  0
LINE
  5
245
100
AcDbEntity
  8
0
100
AcDbLine
 10
-2.183472053415
 20
4.779964007322
 30
0.0
 11
-1.830127018922
 21
4.669872981078
 31
0.0
  0
LINE
  5
246
100
AcDbEntity
  8
0
100
AcDbLine
 10
-1.830127018922
 20
4.669872981078
 30
0.0
 11
-1.470157664652
 21
4.583451985198
 31
0.0
  0
LINE
  5
247
100
AcDbEntity
  8
0
100
AcDbLine
 10
-1.470157664652
 20
4.583451985198
 30
0.0
 11
-1.106158710412
 21
4.515988766663
 31
0.0
  0
LINE
  5
248
100
AcDbEntity
  8
0
100
AcDbLine
 10
-1.106158710412
 20
4.515988766663
 30
0.0
 11
-0.739127852036
 21
4.467668237466
 31
0.0
  0
LINE
  5
249
100
AcDbEntity
  8
0
100
AcDbLine
 10
-0.739127852036
 20
4.467668237466
 30
0.0
 11
-0.370071095593
 21
4.438622840819
 31
0.0
  0
LINE
  5
24A
100
AcDbEntity
  8
0
100
AcDbLine
 10
-0.370071095593
 20
4.438622840819
 30
0.0
 11
0.0
 21
4.428932188135
 31
0.0
  0
LINE
  5
24B
100
AcDbEntity
  8
0
100
AcDbLine
 10
0.0
 20
4.0
 30
0.0
 11
-0.392519671822
 21
4.010278489341
 31
0.0
  0
LINE
  5
24C
100
AcDbEntity
  8
0
100
AcDbLine
 10
-0.392519671822
 20
4.010278489341
 30
0.0
 11
-0.783963474507
 21
4.041085784738
 31
0.0
  0
LINE
  5
24D
100
AcDbEntity
  8
0
100
AcDbLine
 10
-0.783963474507
 20
4.041085784738
 30
0.0
 11
-1.173258487802
 21
4.092337445536
 31
0.0
  0
LINE
  5
24E
100
AcDbEntity
  8
0
100
AcDbLine
 10
-1.173258487802
 20
4.092337445536
 30
0.0
 11
-1.559337681133
 21
4.163892994496
 31
0.0
  0
LINE
  5
24F
100
AcDbEntity
  8
0
100
AcDbLine
 10
-1.559337681133
 20
4.163892994496
 30
0.0
 11
-1.941142838269
 21
4.255556302832
 31
0.0
  0
LINE
  5
250
100
AcDbEntity
  8
0
100
AcDbLine
 10
-1.941142838269
 20
4.255556302832
 30
0.0
 11
-2.317627457812
 21
4.367076127786
 31
0.0
  0
LINE
  5
251
100
AcDbEntity
  8
0
100
AcDbLine
 10
-2.317627457812
 20
4.367076127786
 30
0.0
 11
-2.68775962159
 21
4.498146801271
 31
0.0
  0
LINE
  5
252
100
AcDbEntity
  8
0
100
AcDbLine
 10
-2.68775962159
 20
4.498146801271
 30
0.0
 11
-3.050524823068
 21
4.64840906768
 31
0.0
  0
LINE
  5
253
100
AcDbEntity
  8
0
100
AcDbLine
 10
-3.050524823068
 20
4.64840906768
 30
0.0
 11
-3.404928748047
 21
4.817451068587
 31
0.0
  0
LINE
  5
254
100
AcDbEntity
  8
0
100
AcDbLine
 10
-3.404928748047
 20
4.817451068587
 30
0.0
 11
-3.75
 21
5.004809471617
 31
0.0
  0
LINE
  5
255
100
AcDbEntity
  8
0
100
AcDbLine
 10
-3.75
 20
5.004809471617
 30
0.0
 11
-4.084792762613
 21
5.209970740409
 31
0.0
  0
LINE
  5
256
100
AcDbEntity
  8
0
100
AcDbLine
 10
-4.084792762613
 20
5.209970740409
 30
0.0
 11
-4.408389392194
 21
5.432372542188
 31
0.0
  0
LINE
  5
257
100
AcDbEntity
  8
0
100
AcDbLine
 10
-4.408389392194
 20
5.432372542188
 30
0.0
 11
-4.719902932874
 21
5.671405289073
 31
0.0
  0
LINE
  5
258
100
AcDbEntity
  8
0
100
AcDbLine
 10
-4.894963876553
 20
5.455223027502
 30
0.0
 11
-4.571896315552
 21
5.207324569005
 31
0.0
  0
LINE
  5
259
100
AcDbEntity
  8
0
100
AcDbLine
 10
-4.571896315552
 20
5.207324569005
 30
0.0
 11
-4.236297504538
 21
4.976673896466
 31
0.0
  0
LINE
  5
25A
100
AcDbEntity
  8
0
100
AcDbLine
 10
-4.236297504538
 20
4.976673896466
 30
0.0
 11
-3.889087296526
 21
4.763903207346
 31
0.0
  0
LINE
  5
25B
100
AcDbEntity
  8
0
100
AcDbLine
 10
-3.889087296526
 20
4.763903207346
 30
0.0
 11
-3.531217370561
 21
4.569595691314
 31
0.0
  0
LINE
  5
25C
100
AcDbEntity
  8
0
100
AcDbLine
 10
-3.531217370561
 20
4.569595691314
 30
0.0
 11
-3.163668623235
 21
4.394283931766
 31
0.0
  0
LINE
  5
25D
100
AcDbEntity
  8
0
100
AcDbLine
 10
-3.163668623235
 20
4.394283931766
 30
0.0
 11
-2.787448480117
 21
4.238448446049
 31
0.0
  0
LINE
  5
25E
100
AcDbEntity
  8
0
100
AcDbLine
 10
-2.787448480117
 20
4.238448446049
 30
0.0
 11
-2.403588134468
 21
4.102516368396
 31
0.0
  0
LINE
  5
25F
100
AcDbEntity
  8
0
100
AcDbLine
 10
-2.403588134468
 20
4.102516368396
 30
0.0
 11
-2.013139720814
 21
3.986860279186
 31
0.0
  0
LINE
  5
260
100
AcDbEntity
  8
0
100
AcDbLine
 10
-2.013139720814
 20
3.986860279186
 30
0.0
 11
-1.617173431117
 21
3.891797183718
 31
0.0
  0
LINE
  5
261
100
AcDbEntity
  8
0
100
AcDbLine
 10
-1.617173431117
 20
3.891797183718
 30
0.0
 11
-1.216774581454
 21
3.817587643329
 31
0.0
  0
LINE
  5
262
100
AcDbEntity
  8
0
100
AcDbLine
 10
-1.216774581454
 20
3.817587643329
 30
0.0
 11
-0.813040637239
 21
3.764435061213
 31
0.0
  0
LINE
  5
263
100
AcDbEntity
  8
0
100
AcDbLine
 10
-0.813040637239
 20
3.764435061213
 30
0.0
 11
-0.407078205152
 21
3.732485124901
 31
0.0
  0
LINE
  5
264
100
AcDbEntity
  8
0
100
AcDbLine
 10
-0.407078205152
 20
3.732485124901
 30
0.0
 11
0.0
 21
3.721825406948
 31
0.0
  0
LINE
  5
265
100
AcDbEntity
  8
0
100
AcDbLine
 10
0.0
 20
3.5
 30
0.0
 11
-0.418687649943
 21
3.510963721963
 31
0.0
  0
LINE
  5
266
100
AcDbEntity
  8
0
100
AcDbLine
 10
-0.418687649943
 20
3.510963721963
 30
0.0
 11
-0.836227706141
 21
3.543824837054
 31
0.0
  0
LINE
  5
267
100
AcDbEntity
  8
0
100
AcDbLine
 10
-0.836227706141
 20
3.543824837054
 30
0.0
 11
-1.251475720322
 21
3.598493275239
 31
0.0
  0
LINE
  5
268
100
AcDbEntity
  8
0
100
AcDbLine
 10
-1.251475720322
 20
3.598493275239
 30
0.0
 11
-1.663293526542
 21
3.67481919413
 31
0.0
  0
LINE
  5
269
100
AcDbEntity
  8
0
100
AcDbLine
 10
-1.663293526542
 20
3.67481919413
 30
0.0
 11
-2.07055236082
 21
3.772593389687
 31
0.0
  0
LINE
  5
26A
100
AcDbEntity
  8
0
100
AcDbLine
 10
-2.07055236082
 20
3.772593389687
 30
0.0
 11
-2.472135955
 21
3.891547869639
 31
0.0
  0
LINE
  5
26B
100
AcDbEntity
  8
0
100
AcDbLine
 10
-2.472135955
 20
3.891547869639
 30
0.0
 11
-2.866943596362
 21
4.031356588022
 31
0.0
  0
LINE
  5
26C
100
AcDbEntity
  8
0
100
AcDbLine
 10
-2.866943596362
 20
4.031356588022
 30
0.0
 11
-3.253893144606
 21
4.191636338859
 31
0.0
  0
LINE
  5
26D
100
AcDbEntity
  8
0
100
AcDbLine
 10
-3.253893144606
 20
4.191636338859
 30
0.0
 11
-3.631923997916
 21
4.371947806493
 31
0.0
  0
LINE
  5
26E
100
AcDbEntity
  8
0
100
AcDbLine
 10
-3.631923997916
 20
4.371947806493
 30
0.0
 11
-4.0
 21
4.571796769724
 31
0.0
  0
LINE
  5
26F
100
AcDbEntity
  8
0
100
AcDbLine
 10
-4.0
 20
4.571796769724
 30
0.0
 11
-4.35711228012
 21
4.790635456437
 31
0.0
  0
LINE
  5
270
100
AcDbEntity
  8
0
100
AcDbLine
 10
-4.35711228012
 20
4.790635456437
 30
0.0
 11
-4.70228201834
 21
5.027864045
 31
0.0
  0
LINE
  5
271
100
AcDbEntity
  8
0
100
AcDbLine
 10
-4.70228201834
 20
5.027864045
 30
0.0
 11
-5.034563128399
 21
5.282832308344
 31
0.0
  0
LINE
  5
272
100
AcDbEntity
  8
0
100
AcDbLine
 10
-5.034563128399
 20
5.282832308344
 30
0.0
 11
-5.353044850871
 21
5.554841396181
 31
0.0
  0
LINE
  5
273
100
AcDbEntity
  8
0
100
AcDbLine
 10
-5.441188076442
 20
5.456948426764
 30
0.0
 11
-5.117462234579
 21
5.180460437843
 31
0.0
  0
LINE
  5
274
100
AcDbEntity
  8
0
100
AcDbLine
 10
-5.117462234579
 20
5.180460437843
 30
0.0
 11
-4.779709784441
 21
4.921293867597
 31
0.0
  0
LINE
  5
275
100
AcDbEntity
  8
0
100
AcDbLine
 10
-4.779709784441
 20
4.921293867597
 30
0.0
 11
-4.428856482017
 21
4.680159073579
 31
0.0
  0
LINE
  5
276
100
AcDbEntity
  8
0
100
AcDbLine
 10
-4.428856482017
 20
4.680159073579
 30
0.0
 11
-4.065863991823
 21
4.457716989498
 31
0.0
  0
LINE
  5
277
100
AcDbEntity
  8
0
100
AcDbLine
 10
-4.065863991823
 20
4.457716989498
 30
0.0
 11
-3.691727251041
 21
4.254577313647
 31
0.0
  0
LINE
  5
278
100
AcDbEntity
  8
0
100
AcDbLine
 10
-3.691727251041
 20
4.254577313647
 30
0.0
 11
-3.307471742473
 21
4.071296837756
 31
0.0
  0
LINE
  5
279
100
AcDbEntity
  8
0
100
AcDbLine
 10
-3.307471742473
 20
4.071296837756
 30
0.0
 11
-2.914150683759
 21
3.908377920869
 31
0.0
  0
LINE
  5
27A
100
AcDbEntity
  8
0
100
AcDbLine
 10
-2.914150683759
 20
3.908377920869
 30
0.0
 11
-2.512842140581
 21
3.766267112414
 31
0.0
  0
LINE
  5
27B
100
AcDbEntity
  8
0
100
AcDbLine
 10
-2.512842140581
 20
3.766267112414
 30
0.0
 11
-2.10464607176
 21
3.645353928239
 31
0.0
  0
LINE
  5
27C
100
AcDbEntity
  8
0
100
AcDbLine
 10
-2.10464607176
 20
3.645353928239
 30
0.0
 11
-1.69068131435
 21
3.545969782977
 31
0.0
  0
LINE
  5
27D
100
AcDbEntity
  8
0
100
AcDbLine
 10
-1.69068131435
 20
3.545969782977
 30
0.0
 11
-1.272082516974
 21
3.468387081662
 31
0.0
  0
LINE
  5
27E
100
AcDbEntity
  8
0
100
AcDbLine
 10
-1.272082516974
 20
3.468387081662
 30
0.0
 11
-0.849997029841
 21
3.412818473086
 31
0.0
  0
LINE
  5
27F
100
AcDbEntity
  8
0
100
AcDbLine
 10
-0.849997029841
 20
3.412818473086
 30
0.0
 11
-0.425581759932
 21
3.379416266942
 31
0.0
  0
LINE
  5
280
100
AcDbEntity
  8
0
100
AcDbLine
 10
-0.425581759932
 20
3.379416266942
 30
0.0
 11
0.0
 21
3.368272016355
 31
0.0
  0
ENDSEC
  0
SECTION
  2
OBJECTS
  0
DICTIONARY
  5
C
100
AcDbDictionary
  3
ACAD_GROUP
350
D
  3
ACAD_MLINESTYLE
350
17
  0
DICTIONARY
  5
D
102
{ACAD_REACTORS
330
C
102
}
100
AcDbDictionary
  0
DICTIONARY
  5
17
102
{ACAD_REACTORS
330
C
102
}
100
AcDbDictionary
  3
STANDARD
350
18
  0
MLINESTYLE
  5
18
102
{ACAD_REACTORS
330
17
102
}
100
AcDbMlineStyle
  2
STANDARD
 70
           0
  3

 62
         256
 51
90.0
 52
90.0
 71
           2
 49
0.5
 62
         256
  6
BYLAYER
 49
-0.5
 62
         256
  6
BYLAYER
  0
DICTIONARY
  5
19
102
{ACAD_REACTORS
330
C
102
}
100
AcDbDictionary
  0
DICTIONARY
  5
1A
102
{ACAD_REACTORS
330
C
102
}
100
AcDbDictionary
  3
LAYOUT1
350
1E
  3
LAYOUT2
350
26
  3
MODEL
350
22
  0
DICTIONARY
  5
282
100
AcDbDictionary
  3
ACAD_LAYOUTSELFREF
350
2FC
  3
ACAD_XREC_ROUNDTRIP
350
2C7
  0
DICTIONARY
  5
284
100
AcDbDictionary
  3
ACAD_LAYOUTSELFREF
350
2FB
  3
ACAD_XREC_ROUNDTRIP
350
2C8
  0
DICTIONARY
  5
286
100
AcDbDictionary
  3
ACAD_LAYOUTSELFREF
350
2FD
  3
ACAD_XREC_ROUNDTRIP
350
2C9
  0
XRECORD
  5
2C7
102
{ACAD_REACTORS
330
282
102
}
100
AcDbXrecord
102
EXTNAMES
  1
*MODEL_SPACE
  2
*Model_Space
  0
XRECORD
  5
2C8
102
{ACAD_REACTORS
330
284
102
}
100
AcDbXrecord
102
EXTNAMES
  1
*PAPER_SPACE
  2
*Paper_Space
  0
XRECORD
  5
2C9
102
{ACAD_REACTORS
330
286
102
}
100
AcDbXrecord
102
EXTNAMES
  1
*PAPER_SPACE0
  2
*Paper_Space0
  0
DICTIONARY
  5
2CA
100
AcDbDictionary
  3
ACAD_XREC_ROUNDTRIP
350
2CB
  0
XRECORD
  5
2CB
102
{ACAD_REACTORS
330
2CA
102
}
100
AcDbXrecord
102
EXTNAMES
  1
POMOC
  2
pomoc
  0
DICTIONARY
  5
2CC
100
AcDbDictionary
  3
ACAD_XREC_ROUNDTRIP
350
2CD
  0
XRECORD
  5
2CD
102
{ACAD_REACTORS
330
2CC
102
}
100
AcDbXrecord
102
EXTNAMES
  1
BYBLOCK
  2
ByBlock
  0
DICTIONARY
  5
2CE
100
AcDbDictionary
  3
ACAD_XREC_ROUNDTRIP
350
2CF
  0
XRECORD
  5
2CF
102
{ACAD_REACTORS
330
2CE
102
}
100
AcDbXrecord
102
EXTNAMES
  1
BYLAYER
  2
ByLayer
  0
DICTIONARY
  5
2D0
100
AcDbDictionary
  3
ACAD_XREC_ROUNDTRIP
350
2D1
  0
XRECORD
  5
2D1
102
{ACAD_REACTORS
330
2D0
102
}
100
AcDbXrecord
102
EXTNAMES
  1
CONTINUOUS
  2
Continuous
  0
DICTIONARY
  5
2D2
100
AcDbDictionary
  3
ACAD_XREC_ROUNDTRIP
350
2D3
  0
XRECORD
  5
2D3
102
{ACAD_REACTORS
330
2D2
102
}
100
AcDbXrecord
102
EXTNAMES
  1
STANDARD
  2
Standard
  0
DICTIONARY
  5
2D4
100
AcDbDictionary
  3
ACAD_XREC_ROUNDTRIP
350
2D5
  0
XRECORD
  5
2D5
102
{ACAD_REACTORS
330
2D4
102
}
100
AcDbXrecord
102
EXTNAMES
  1
*ACTIVE
  2
*Active
102
UCS
 74
           0
 71
           1
 10
0.0
 20
0.0
 30
0.0
 10
1.0
 20
0.0
 30
0.0
 10
0.0
 20
1.0
 30
0.0
146
0.0
 79
           0
102
VIEW
  0
DICTIONARY
  5
2D6
102
{ACAD_REACTORS
330
C
102
}
100
AcDbDictionary
  3
CEPSNTYPE
350
2E0
  3
DIMSTYLEDATA
350
2E4
  3
FINGERPRINTGUID
350
2E1
  3
HYPERLINKBASE
350
2D9
  3
INSUNITS
350
2DF
  3
LAYOUTDICT
350
2DB
  3
LWETCUNION
350
2DE
  3
PLOTSETDICT
350
2DC
  3
PLOTSTYLNAMDICT
350
2DD
  3
PSVPSCALE
350
2E3
  3
PUCSBASE
350
2E7
  3
PUCSORGBACK
350
2ED
  3
PUCSORGBOTTOM
350
2E9
  3
PUCSORGFRONT
350
2EC
  3
PUCSORGLEFT
350
2EA
  3
PUCSORGRIGHT
350
2EB
  3
PUCSORGTOP
350
2E8
  3
PUCSORTHOREF
350
2E5
  3
PUCSORTHOVIEW
350
2E6
  3
STYLESHEET
350
2DA
  3
TSTACKALIGN
350
2D7
  3
TSTACKSIZE
350
2D8
  3
UCSBASE
350
2F0
  3
UCSORGBACK
350
2F6
  3
UCSORGBOTTOM
350
2F2
  3
UCSORGFRONT
350
2F5
  3
UCSORGLEFT
350
2F3
  3
UCSORGRIGHT
350
2F4
  3
UCSORGTOP
350
2F1
  3
UCSORTHOREF
350
2EE
  3
UCSORTHOVIEW
350
2EF
  3
VERSIONGUID
350
2E2
  0
XRECORD
  5
2D7
102
{ACAD_REACTORS
330
2D6
102
}
100
AcDbXrecord
 90
        1
  0
XRECORD
  5
2D8
102
{ACAD_REACTORS
330
2D6
102
}
100
AcDbXrecord
 90
       70
  0
XRECORD
  5
2D9
102
{ACAD_REACTORS
330
2D6
102
}
100
AcDbXrecord
  0
XRECORD
  5
2DA
102
{ACAD_REACTORS
330
2D6
102
}
100
AcDbXrecord
  0
XRECORD
  5
2DB
102
{ACAD_REACTORS
330
2D6
102
}
100
AcDbXrecord
340
1A00000000000000
  0
XRECORD
  5
2DC
102
{ACAD_REACTORS
330
2D6
102
}
100
AcDbXrecord
340
1900000000000000
  0
XRECORD
  5
2DD
102
{ACAD_REACTORS
330
2D6
102
}
100
AcDbXrecord
340
E00000000000000
  0
XRECORD
  5
2DE
102
{ACAD_REACTORS
330
2D6
102
}
100
AcDbXrecord
 90
    10781
  0
XRECORD
  5
2DF
102
{ACAD_REACTORS
330
2D6
102
}
100
AcDbXrecord
 90
        4
  0
XRECORD
  5
2E0
102
{ACAD_REACTORS
330
2D6
102
}
100
AcDbXrecord
 90
        0
  0
XRECORD
  5
2E1
102
{ACAD_REACTORS
330
2D6
102
}
100
AcDbXrecord
  1
{FDEAD578-A652-11D2-9A35-0060089B3A3F}
  0
XRECORD
  5
2E2
102
{ACAD_REACTORS
330
2D6
102
}
100
AcDbXrecord
  1
{117416E2-AFC0-11D5-8D67-E5334EA1560A}
  0
XRECORD
  5
2E3
102
{ACAD_REACTORS
330
2D6
102
}
100
AcDbXrecord
 40
0.0
  0
XRECORD
  5
2E4
102
{ACAD_REACTORS
330
2D6
102
}
100
AcDbXrecord
 70
          44
  0
XRECORD
  5
2E5
102
{ACAD_REACTORS
330
2D6
102
}
100
AcDbXrecord
340
0
  0
XRECORD
  5
2E6
102
{ACAD_REACTORS
330
2D6
102
}
100
AcDbXrecord
 70
           0
  0
XRECORD
  5
2E7
102
{ACAD_REACTORS
330
2D6
102
}
100
AcDbXrecord
340
0
  0
XRECORD
  5
2E8
102
{ACAD_REACTORS
330
2D6
102
}
100
AcDbXrecord
 10
0.0
 20
0.0
 30
0.0
  0
XRECORD
  5
2E9
102
{ACAD_REACTORS
330
2D6
102
}
100
AcDbXrecord
 10
0.0
 20
0.0
 30
0.0
  0
XRECORD
  5
2EA
102
{ACAD_REACTORS
330
2D6
102
}
100
AcDbXrecord
 10
0.0
 20
0.0
 30
0.0
  0
XRECORD
  5
2EB
102
{ACAD_REACTORS
330
2D6
102
}
100
AcDbXrecord
 10
0.0
 20
0.0
 30
0.0
  0
XRECORD
  5
2EC
102
{ACAD_REACTORS
330
2D6
102
}
100
AcDbXrecord
 10
0.0
 20
0.0
 30
0.0
  0
XRECORD
  5
2ED
102
{ACAD_REACTORS
330
2D6
102
}
100
AcDbXrecord
 10
0.0
 20
0.0
 30
0.0
  0
XRECORD
  5
2EE
102
{ACAD_REACTORS
330
2D6
102
}
100
AcDbXrecord
340
0
  0
XRECORD
  5
2EF
102
{ACAD_REACTORS
330
2D6
102
}
100
AcDbXrecord
 70
           0
  0
XRECORD
  5
2F0
102
{ACAD_REACTORS
330
2D6
102
}
100
AcDbXrecord
340
0
  0
XRECORD
  5
2F1
102
{ACAD_REACTORS
330
2D6
102
}
100
AcDbXrecord
 10
0.0
 20
0.0
 30
0.0
  0
XRECORD
  5
2F2
102
{ACAD_REACTORS
330
2D6
102
}
100
AcDbXrecord
 10
0.0
 20
0.0
 30
0.0
  0
XRECORD
  5
2F3
102
{ACAD_REACTORS
330
2D6
102
}
100
AcDbXrecord
 10
0.0
 20
0.0
 30
0.0
  0
XRECORD
  5
2F4
102
{ACAD_REACTORS
330
2D6
102
}
100
AcDbXrecord
 10
0.0
 20
0.0
 30
0.0
  0
XRECORD
  5
2F5
102
{ACAD_REACTORS
330
2D6
102
}
100
AcDbXrecord
 10
0.0
 20
0.0
 30
0.0
  0
XRECORD
  5
2F6
102
{ACAD_REACTORS
330
2D6
102
}
100
AcDbXrecord
 10
0.0
 20
0.0
 30
0.0
  0
DICTIONARY
  5
2F7
100
AcDbDictionary
  3
ACAD_XREC_ROUNDTRIP
350
2F8
  0
XRECORD
  5
2F8
102
{ACAD_REACTORS
330
2F7
102
}
100
AcDbXrecord
102
EXTNAMES
  1
STANDARD
  2
Standard
  0
DICTIONARY
  5
2F9
100
AcDbDictionary
  3
ACAD_XREC_ROUNDTRIP
350
2FA
  0
XRECORD
  5
2FA
102
{ACAD_REACTORS
330
2F9
102
}
100
AcDbXrecord
102
EXTNAMES
  1
LAYOUT1
  2
Layout1
  1
LAYOUT2
  2
Layout2
  1
MODEL
  2
Model
  0
XRECORD
  5
2FB
102
{ACAD_REACTORS
330
284
102
}
100
AcDbXrecord
340
1B00000000000000
  0
XRECORD
  5
2FC
102
{ACAD_REACTORS
330
282
102
}
100
AcDbXrecord
340
1F00000000000000
  0
XRECORD
  5
2FD
102
{ACAD_REACTORS
330
286
102
}
100
AcDbXrecord
340
2300000000000000
  0
DICTIONARY
  5
2FE
100
AcDbDictionary
  3
ACAD_XREC_ROUNDTRIP
350
2FF
  0
XRECORD
  5
2FF
102
{ACAD_REACTORS
330
2FE
102
}
100
AcDbXrecord
102
ACADR14ROUNDTRIP
 70
          44
  0
ENDSEC
  0
EOF
